Primer 55
Hate
Tabbed by: Pat
Email: [email protected]
[email protected]--------------|
|-5--------|----5-------5--------|------------------|--------------------------|
|-5--------|----5-------5--------|---x-x-x-x-x-x----|--------------------------|
|----------|---------------------|---x-x-x-x-x-x----|--------------------------|
|----------|---------------------|------------------|--------------------------|
|----------|---------------------|------------------|--------------------------|
|-------|-------------|--------------------------------------|-----------------|
|-------|-------------|--------------------------------------|-----------------|
|-------|-------5-----|-----5-7*-5---------5-----------------|-----------------|
|---5h7-|-5h6h7---7---|-5h7---------7--5/7---7------5-5-5h7--|-----------------|
|-------|-------------|---------------------------/7---------|-----------------|
|-------|-------------|--------------------------------------|-----------------|
*full step (2 frets) bend
|-------|----------------|----------------------------------------------------|
|-------|----------13----|-----------13-15*-13----------13--------------------|
|-7/14--|-12h13h14----14-|--12h13h14-----------14-12/14----14-----12-12-12h14-|
|-------|----------------|-------------------------------------/14------------|
|-------|----------------|----------------------------------------------------|
|-------|----------------|----------------------------------------------------|
|---------|--------------|--------|-------------|-------|-------------|-------|
|---------|-----------5--|--------|-------------|-------|-----------5-|-------|
|----54--|---54-7--5---|----54-|---54-7-5-4-|---54-|---54-7--5--|---54-|
|---------|--------------|--------|-------------|-------|-------------|-------|
|--5------|-5------------|--5-----|-5-----------|-5-----|-5-----------|-5-----|
|---------|--------------|--------|-------------|-------|-------------|-------|
|-0-------------|
|-0-------------|
|-7-------------|
|-7-------------|
|-5-------------|
|---------------|
|---------------------|
|---------------------|
|---------------------|
|-7-7-7-7-7-x-x-x-x---|
|-7-7-7-7-7-x-x-x-x---|
|-5-5-5-5-5-x-x-x-x---| thats the chorus over and over agian
sorry no solo =/





Ваше мнение



Капча