Date: Sun, 22 Dec 1996 11:46:58 -0800
From: Quentin Little
Subject: Possum Dixon Song "Watch that girl destroy me." Tablature
"Watch That Girl Destroy Me" - by Possum Dixon.
This is the greatest song for campfires or whatever you delight:
Key:
~ - let ring.

Verse- Fingerpicked
D C Bm-ish Chord C
e|---2~~~~--2------------------0-------------------0-------------------0---------|
b|--------3---3-----------3------3------------3------3------------3------3---3---|
g|------2-------2-------0---0------0--------0---0------0--------0---0------0-----|
d|---0~~~------------------------------------------------------------------------|
a|------------------3~~~~----------------2~~~~~--------------3~~~~~--------------|
E|-------------------------------------------------------------------------------|
Chorus:
(strum)
e|----2-2-2--0--0~~~-----------------------------------|
b|----3-3-3--3--3~~~-----------------------------------|
g|----2-2-2--0--0~~~-----------------------------------|
d|----0-0-0--2--2~~~-----0--0--0--0--0--0--0--0---0----| repeat
a|-----------0--3~~~-----2--2--2--0--2--3--0--3---3----|
E|-----------------------3--3--3-----------------------|
Im sure you can find out the interlude just fine.





Ваше мнение



Капча