Табулатура
F G#9+(см.внизу)
-9----------9------------7---------7---------7---------7---
---11---------11-----------9---------9---------9---------9-
------11---------------------10------------------10--------
---------11---------------------11------------------11-----
-----------------------------------------------------------
-----------------------------------------------------------
F
-------9----------9------------------9----------9----------
---------11---------11-----------------11---------11-------
------------11----------------------------11---------------
---------------11----------------------------11------------
-----------------------------------------------------------
-----------------------------------------------------------
D#9+ G#m F#
-9----------9----11----------11----13-----14-14-------------
---11---------11----12----------12--------------14----------
------12---------------13--------------------------15-------
---------13---------------13--------------------------16-16-
------------------------------------------------------------
------------------------------------------------------------
Бас для 6-ти стр. ак. гитары
-----------------------------------------------------------------
-----------------------------------------------------------------
-----------------------------------------------------------------
-4-----4-----------------------------------------4-----4---------
---4-4---4-4-3-4-4-----4---------4---2-4-----2-4---4-4---4-4-3-4-
-------------------4-4---4-4-3-4---4-----4-4---------------------

---------------------------------------------------------
---------------------------------------------------------
---------------------------------------------------------
-1---1-1-------1---------------------------------4---4-4-
---1-----1-0-----------1-2---2-2-1-2-4---4-4-3-4---4-----
-------------4---4-4-4-----2-----------4-----------------

-------------------------------------2-2-------2--------
-----------------------------------------2--------------
-----------------1---1-1-------------------3------------
---0-1---1-1-0-1---1-----1-0-----------------4----------
-4-----1---------------------4--------------------------
--------------------------------------------------------

Аккорды:
F G#9+ D#9+
*-1-*---*---* *-1-*---*---* *-1-*---*---*
*-1-*---*---* *-1-*-4-*---* *-1-*-4-*---*
*-1-*-2-*---* *-1-*---*---* *-1-*---*---*
*-1-*---*-3-* *-1-*-3-*---* *-1-*-3-*---*
*-1-*---*-3-* *-1-*-2-*---* *-1-*-2-*---*
*-1-*---*---* *---*---*---* *-1-*---*---*
1лад 1лад 3лад
G#m F#
*-1-*---*---* *-1-*---*---*
*-1-*---*---* *-1-*---*---*
*-1-*---*---* *-1-*-2-*---*
*-1-*---*-4-* *-1-*---*-4-*
*-1-*---*-3-* *-1-*---*-3-*
*-1-*---*---* *-1-*---*---*
4лад 2лад

Текст (как я помню, он именно такой):

Мальчишки и девченки, а также их родители,
Веселые истории услышать не хотите ли,
Веселые истории журнал покажет наш,
Веселые истории в журнале "Ералаш"!!!

Аккорды к тексту смотрите над табами.




Ваше мнение



Капча

Комментарии

????
там не журнал покажет, а экран!!