Hearts and Bones - Paul Simon
~~~~~~~~~~~~~~~~
From "Hearts and Bones".
Transcribed by John Kean ([email protected]) and Jared White.
Sounds best on two guitars: one playing the tablature, the other playing
the chords.
Standard tuning.
4/4 time (mostly). Timing marks above tablature.
E
, . , . , . , . , . , . , . , . , . , . , . , . , . , . , . , .
||------------------|-------7---------|-----------------|-----------------|
||--------5---7-----|-7/9-------9-----|-------5---7-----|-7/9---9---9-----|
||*-----------------|-----------------|-----------------|-----------------|
||*-----6-------7---|-7/9---------9---|-----6-------7---|-7/9---------9---|
||------------------|-----------------|-----------------|-----------------|
||--0---------------|-0---------------|-0---------------|-0---------------|
....................
1. |
, . , . , . , . , . , . , . , . , . , . , . , . , . , . , . , . |
|-----------------|-------7---------|-----------------|------------------||
|-------5---7-----|-7/9-------9-----|-------5---7-----|-5-----5---5------||
|-----------------|-----------------|-----------------|-----------------*||
|-----6-------7---|-7/9---------9---|-----6-------7---|-6-----------6---*||
|-----------------|-----------------|-----------------|------------------||
|-0---------------|-0---------------|-0---------------|-0----------------||
...................
2. A
, . , . , . , . , . , . , . , . , . , . , . , . , . , . , . , .
|-----------------|-------5---7-----|-7/9---9---9-----|-9-----9---9-----|
|-7/9---7----5----|-----------------|-----------------|-----------------|
|-----------------|-----6-------7---|-7/9---------9---|-9-----------9---|
|-7/9---7----6----|-----------------|-----------------|-----------------|
|-----------------|-0---------------|-0---------------|-0---------------|
|-0---------------|-----------------|-----------------|-----------------|
E
, . , . , . , . , . , . , . , . , . , . , . , . , . , . , . , .
|-9--\7---5--/7---|-----------------|-----------------|-----------------|
|-----------------|-------5---7-----|-7/9---9---9-----|-9-----9---9-----|
|-9--\7---6-------|-----------------|-----------------|-----------------|
|-----------------|-----6-------7---|-7/9---------9---|-9-----------9\--|
|-0---------------|-----------------|-----------------|-----------------|
|-----------------|-0---------------|-0---------------|-0---------------|
B
, . , . , . , . , . , . , . , . , . , . , . , . , . , . , . , .
|-----------------|-----------------|-----------------|-----------------|
|------4----5-----|-7-----5---------|-----4--\2---0---|-----------------|
|-----------------|-----------------|-----------------|-2----1----2-----|
|------4----6-----|-7-----6---------|-----4--\2---1---|-----------------|
|-2---------------|-----------------|-2---------------|-4----2----------|
|-----------------|-----------------|-----------------|-----------2-----|
E A B
, . , . , . , . , . , . , . , . , . , . , . , . , . , . , . , .
|-------------0---|-------------0---|-----------5-----|-------7---------|
|-------0---------|---------0-------|-------5---------|-----------7-----|
|-1---------------|-----1-----------|-6---------------|-8---------------|
|-----------------|-----------------|-----7-----------|-----9-----------|
|-----------------|-----------------|-----------------|-----------------|
|-0-----2-----4---|-----0---2---4---|-5-----------5---|-7-----------7---|
E
, . , . , . , . , . , . , . , . , . , . , . , . , . , . , . , .
|-----------------|-------7---------|-----------------|-----------------||
|-------5---7-----|-7/9-------9-----|-------5---7-----|-5-----5---5-----||
|-----------------|-----------------|-----------------|-----------------||
|-----6-------7---|-7/9---------9---|-----6-------7---|-6-----------6---||
|-----------------|-----------------|-----------------|-----------------||
|-0---------------|-0---------------|-0---------------|-0---------------||
E
, . , . , . , . , . , . , . , . , . , . , . , . , . , . , . , .
||-----------------|-------7---------|-----------------|-------7---------|
||-------5---7-----|-7/9-------9-----|-------5---7-----|-7/9-------9-----|
||-----------------|-----------------|-----------------|-----------------|
||-----6-------7---|-7/9---------9---|-----6-------7---|-7/9---------9---|
||-----------------|-----------------|-----------------|-----------------|
||-0---------------|-0---------------|-0---------------|-0---------------|
One and one-half wandering Jews Free to
, . , . , . , . , . , . , . , . , . , . , . , . , . , . , . , .
|-----------------|-------7---------|-----------------|-------7---------|
|-------5---7-----|-7/9-------9-----|-------5---7-----|-7/9-------9-----|
|-----------------|-----------------|-----------------|-----------------|
|-----6-------7---|-7/9---------9---|-----6-------7---|-7/9---------9---|
|-----------------|-----------------|-----------------|-----------------|
|-0---------------|-0---------------|-0---------------|-0---------------|
wander wherever they choose Are
, . , . , . , . , . , . , . , . , . , . , . , . , . , . , . , .
|-----------------|-------7---------|-----------------|-------7---------|
|-------5---7-----|-7/9-------9-----|-------5---7-----|-7/9-------9-----|
|-----------------|-----------------|-----------------|-----------------|
|-----6-------7---|-7/9---------9---|-----6-------7---|-7/9---------9---|
|-----------------|-----------------|-----------------|-----------------|
|-0---------------|-0---------------|-0---------------|-0---------------|
travelling together In the Sangre de Cristo The
B
, . , . , . , . , . , . , . , . , . , . , . , . , . , . , . , .
|-----------------|-------7---------|-2---------------|-2---------------|
|-------5---7-----|-7/9-------9-----|-4---------------|-4---------------|
|-----------------|-----------------|-4--strum--------|-4--strum--------|
|-----6-------7---|-7/9---------9---|-4---------------|-4---------------|
|-----------------|-----------------|-2---------------|-2---------------|
|-0---------------|-0---------------|-----------------|-----------------|
Blood of Christ Mountains Of New Mexico
B7 C#m7
, . , . , . , . , . , . , . , . , . , . , . , .
|-2---------------|-2---------------|-2-------4-------|
|-4---------------|-4---------------|-4-------5-------|
|-4--strum--------|-4--strum--------|-2-------4-------|
|-4---------------|-4---------------|-4-------6-------|
|-2---------------|-2---------------|-2-------4-------|
|-----------------|-----------------|-----------------|
On the
B7/D#
, . , . , . , . , . , . , . , . , . , . , . , .
|-5---------------|-5---------------|-5---------------|
|-4---------------|-4---------------|-4---------------|
|-4--strum--------|-4--strum--------|-4--strum--------|
|-4---------------|-4---------------|-4---------------|
|-6---------------|-6---------------|-6---------------|
|-----------------|-----------------|-----------------|
last leg of the journey they started a long
C#m F#7+2/A#
, . , . , . , . , . , . , . , . , . , . , . , . , . , . , . , .
|-4---------------|-4---------------|-4---------------|-4---------------|
|-5---------------|-5---------------|-5---------------|-5---------------|
|-6--strum--------|-6--strum--------|-6--strum--------|-6--strum--------|
|-6---------------|-6---------------|-4---------------|-4---------------|
|-4---------------|-4---------------|-----------------|-----------------|
|-----------------|-----------------|-6---------------|-6---------------|
time ago The arc of a
Bmaj7
, . , . , . , . , . , . , . , . , . , . , . , . , . , . , . , .
|------2----2-----|-2----2----2-----|------2----2-----|-2----2----2-----|
|------4----4-----|-4----4----4-----|------4----4-----|-4----4----4-----|
|------3----3-----|-3----3----3-----|------3----3-----|-3----3----3-----|
|------4----4-----|-4----4----4-----|------4----4-----|-4----4----4-----|
|-2---------------|-----------------|-2---------------|-----------------|
|-----------------|-----------------|-----------------|-----------------|
love affair Rainbows in the
A
, . , . , . , . , . , . , . , . , . , . , . , . , . , . , . , .
|-----------------|-----------5-----|-----------------|-----------------|
|------5----5-----|-5---------------|-5---------------|-5----5----5-----|
|------6----6-----|-6----6----6-----|------6----6-----|-6----6----6-----|
|------7----7-----|-7----7----7-----|------7----7-----|-7----7----7-----|
|------7----7-----|-7----7----7-----|------7----7-----|-7----7----7-----|
|-5---------------|-----------------|-5---------------|-----------------|
high desert air
E
, . , . , . , . , . , . , . , . 5/4 . , . , . , . , .
|-----------------|-----------------|---------------------|
|-----5-----7-----|-9----7----5-----|-7----9----7----5----|
|-----------------|-----------------|---------------------|
|-----6-----7-----|-9----7----6-----|-7----9----7----6----|
|-----------------|-----------------|---------------------|
|-0---------------|-----------------|---------------------|
Mountain passes slipping into
A
4/4 . , . , . , . , . , . , . , . , . , . , . , . , . , . , . , .
|-------5---7-----|-7/9---9---9-----|-9-----9---9-----|-9-----9---9-----|
|-----------------|-----------------|-----------------|-----------------|
|-----6-------7---|-7/9---------9---|-9-----------9---|-9-----------9---|
|-----------------|-----------------|-----------------|-----------------|
|-0---------------|-0---------------|-0---------------|-0---------------|
|-----------------|-----------------|-----------------|-----------------|
stones Hearts and
E
, . , . , . , . , . , . , . , . , . , . , . , . , . , . , . , .
|-----------------|-----------------|-----------------|-----------------|
|-------5---7-----|-7/9---9---9-----|---9---9---9-----|-9-----9---9-----|
|-----------------|-----------------|-----------------|-----------------|
|-----6-------7---|-7/9---------9---|-9-----------9---|-9-----------9---|
|-----------------|-----------------|-----------------|-----------------|
|-0---------------|-0---------------|-0---------------|-0---------------|
bones Hearts and
C#m
, . , . , . , . , . , . , . , . , . , . , . , . , . , . , . , .
|-----------------|-----------------|-----------------|-----------------|
|---------------5-|-------5-------5-|-------5-------5-|-------5-------5-|
|-----------6-----|---6-------6-----|---6-------6-----|---6-------6-----|
|-----6-------6---|-----6-------6---|-----6-------6---|-----6-------6---|
|-4-------4-------|-4-------4-------|-4-------4-------|-4-------4-------|
|-----------------|-----------------|-----------------|-----------------|
bones Hearts and
E
, . , . , . , . , . , . , . , . , . , . , . , . , . , . , . , .
|-----------------|-------7---------|-----------------|-----------------|
|-------5---7-----|-7/9-------9-----|-------5---7-----|-7/9---9---9-----|
|-----------------|-----------------|-----------------|-----------------|
|-----6-------7---|-7/9---------9---|-----6-------7---|-7/9---------9---|
|-----------------|-----------------|-----------------|-----------------|
|-0---------------|-0---------------|-0---------------|-0---------------|
bones
, . , . , . , . , . , . , . , . , . , . , . , . , . , . , . , .
|-----------------|-------7---------|-----------------|-----------------||
|-------5---7-----|-7/9-------9-----|-------5---7-----|-5-----5---5-----||
|-----------------|-----------------|-----------------|-----------------||
|-----6-------7---|-7/9---------9---|-----6-------7---|-6-----------6---||
|-----------------|-----------------|-----------------|-----------------||
|-0---------------|-0---------------|-0---------------|-0---------------||
Thinking
$$ E
, . , . , . , . , . , . , . , . , . , . , . , . , . , . , . , .
||-----------------|-------7---------|-----------------|-----------------|
||-------5---7-----|-7/9-------9-----|-------5---7-----|-7/9---9---9-----|
||-----------------|-----------------|-----------------|-----------------|
||-----6-------7---|-7/9---------9---|-----6-------7---|-7/9---------9---|
||-----------------|-----------------|-----------------|-----------------|
||-0---------------|-0---------------|-0---------------|-0---------------|
back to the season before Looking
One and one-half wandering Jews
, . , . , . , . , . , . , . , . , . , . , . , . , . , . , . , .
|-----------------|-------7---------|-----------------|-----------------|
|-------5---7-----|-7/9-------9-----|-------5---7-----|-7/9---9---9-----|
|-----------------|-----------------|-----------------|-----------------|
|-----6-------7---|-7/9---------9---|-----6-------7---|-7/9---------9---|
|-----------------|-----------------|-----------------|-----------------|
|-0---------------|-0---------------|-0---------------|-0---------------|
back through the crack in the door Two
Returned to their natural coasts To
, . , . , . , . , . , . , . , . , . , . , . , . , . , . , . , .
|-----------------|-------7---------|-----------------|-------7---------|
|-------5---7-----|-7/9-------9-----|-------5---7-----|-7/9-------9-----|
|-----------------|-----------------|-----------------|-----------------|
|-----6-------7---|-7/9---------9---|-----6-------7---|-7/9---------9---|
|-----------------|-----------------|-----------------|-----------------|
|-0---------------|-0---------------|-0---------------|-0---------------|
people were married, The act was outrageous, The
resume old acquaintances, Step out occasionally,
B
, . , . , . , . , . , . , . , . , . , . , . , . , . , . , . , .
|-----------------|-------7---------|-2---------------|-2---------------|
|-------5---7-----|-7/9-------9-----|-4---------------|-4---------------|
|-----------------|-----------------|-4--strum--------|-4--strum--------|
|-----6-------7---|-7/9---------9---|-4---------------|-4---------------|
|-----------------|-----------------|-2---------------|-2---------------|
|-0---------------|-0---------------|-----------------|-----------------|
bride was contageous She burned like a bride
Speculate who had been damaged the most
B7 C#m7
, . , . , . , . , . , . , . , . , . , . , . , .
|-2---------------|-2---------------|-2-------4-------|
|-4---------------|-4---------------|-4-------5-------|
|-4--strum--------|-4--strum--------|-2-------4-------|
|-4---------------|-4---------------|-4-------6-------|
|-2---------------|-2---------------|-2-------4-------|
|-----------------|-----------------|-----------------|
These e-
Ea- -sy
B7/D#
, . , . , . , . , . , . , . , . , . , . , . , . , . , . , . , .
|-5---------------|-5---------------|-5---------------|-5---------------|
|-4---------------|-4---------------|-4---------------|-4---------------|
|-4--strum--------|-4--strum--------|-4--strum--------|-4--strum--------|
|-4---------------|-4---------------|-4---------------|-4---------------|
|-6---------------|-6---------------|-6---------------|-6---------------|
|-----------------|-----------------|-----------------|-----------------|
-vents may have had some effect on the man with the
time will determine if these consolations will
C#m F#7+2/A#
, . , . , . , . , . , . , . , . , . , . , . , . , . , . , . , .
|-4---------------|-4---------------|-4---------------|-4---------------|
|-5---------------|-5---------------|-5---------------|-5---------------|
|-6--strum--------|-6--strum--------|-6--strum--------|-6--strum--------|
|-6---------------|-6---------------|-4---------------|-4---------------|
|-4---------------|-4---------------|-----------------|-----------------|
|-----------------|-----------------|-6---------------|-6---------------|
girl by his side The arc of a
be their reward The arc of a
Bmaj7
, . , . , . , . , . , . , . , . , . , . , . , . , . , . , . , .
|-----------------|------2----------|-----------------|------2----------|
|-----------------|-4---------4-----|-----------------|-4---------4-----|
|-----------3-----|-----------------|-----------3-----|-----------------|
|------4----------|-----------------|------4----------|-----------------|
|-2---------------|-----------------|-2---------------|-----------------|
|-----------------|-----------------|-----------------|-----------------|
love affair His hands rolling
love affair Waiting to be re-
A
, . , . , . , . , . , . , . , . , . , . , . , . , . , . , . , .
|-----------------|-----------------|-----------------|-----------------|
|-----------------|-5---------------|-----------------|-5---------------|
|-----------6-----|------6----------|-----------6-----|------6----------|
|------7----------|-----------7-----|------7----------|-----------7-----|
|-----------------|-----------------|-----------------|-----------------|
|-5---------------|-----------------|-5---------------|-----------------|
down her hair
-stored
E
, . , . , . , . , . , . , . , . 5/4 . , . , . , . , .
|-----------------|-----------------|---------------------|
|-----5-----7-----|-9----7----5-----|-7----9----7----5----|
|-----------------|-----------------|---------------------|
|-----6-----7-----|-9----7----6-----|-7----9----7----6----|
|-----------------|-----------------|---------------------|
|-0---------------|-----------------|---------------------|
Love like lightning shaking 'til it
You take two bodies and you twirl them into
A
4/4 . , . , . , . , . , . , . , . , . , . , . , . , . , . , . , .
|-------5---7-----|-7/9---9---9-----|-9-----9---9-----|-9-----9---9-----|
|-----------------|-----------------|-----------------|-----------------|
|-----6-------7---|-7/9---------9---|-9-----------9---|-9-----------9---|
|-----------------|-----------------|-----------------|-----------------|
|-0---------------|-0---------------|-0---------------|-0---------------|
|-----------------|-----------------|-----------------|-----------------|
moans Hearts and
one Their hearts and their
E To Coda
, . , . , . , . , . , . , . , . , . , . , . , . , . , . , . , . %%
|-----------------|-----------------|-----------------|-----------------||
|-------5---7-----|-7/9---9---9-----|---9---9---9-----|-9-----9---9-----||
|-----------------|-----------------|-----------------|-----------------||
|-----6-------7---|-7/9---------9---|-9-----------9---|-9-----------9---||
|-----------------|-----------------|-----------------|-----------------||
|-0---------------|-0---------------|-0---------------|-0---------------||
bones Hearts and
bones No, they won't come un-
C#m
, . , . , . , . , . , . , . , . , . , . , . , . , . , . , . , .
||-----------------|-----------------|-----------------|-----------------|
||---------------5-|-------5-------5-|-------5-------5-|-------5---2-----|
||-----------6-----|---6-------6-----|---6-------6-----|---6-------------|
||-----6-------6---|-----6-------6---|-----6-------6---|-----6-------4---|
||-4-------4-------|-4-------4-------|-4-------4-------|-4-------2-------|
||-----------------|-----------------|-----------------|-----------------|
bones Hearts and
A
, . , . , . , . , . , . , . , . , . , . , . , . , . , . , . , .
|-----------------|-----------------|-----------------|-----------------|
|-----------------|-----------------|-----------------|-----------------|
|-----/6----6-----|-6----6----6-----|-6----6----6-----|-6----6----6-----|
|-----/7----7-----|-7----7----7-----|-7----7----7-----|-7----7----7-----|
|-0---------------|-----------------|-0---------------|-----------------|
|-----------------|-----------------|-----------------|-----------------|
bones Hearts and
E
, . , . , . , . , . , . , . , . , . , . , . , . , . , . , . , .
|-----------------|-------7---------|-----------------|-----------------|
|-------5---7-----|-7/9-------9-----|-------5---7-----|-7/9---9---9-----|
|-----------------|-----------------|-----------------|-----------------|
|-----6-------7---|-7/9---------9---|-----6-------7---|-7/9---------9---|
|-----------------|-----------------|-----------------|-----------------|
|-0---------------|-0---------------|-0---------------|-0---------------|
bones
, . , . , . , . , . , . , . , . , . , . , . , . , . , . , . , .
|-----------------|-------7---------|-----------------|-----------------||
|-------5---7-----|-7/9-------9-----|-------5---7-----|-5-----5---5-----||
|-----------------|-----------------|-----------------|-----------------||
|-----6-------7---|-7/9---------9---|-----6-------7---|-6-----------6---||
|-----------------|-----------------|-----------------|-----------------||
|-0---------------|-0---------------|-0---------------|-0---------------||
(No chords)
, . , . , . , . , . , . , . , .
||-----------------|-----------------|
||-----------------|-----------------|
||-----------------|-----------------|
||-----------------|-----------------|
||-----------------|-----------------|
||-0-------2-------|-4-------5-------|
Woah woah wo She said
, . , . , . , . , . , . , . , . , . , . , . , . , . , . , . , .
|-----------------|-----------------|-----------------|-----------------|
|-----------------|-----------------|-----------------|-----------------|
|-----------------|-----------------|-----------------|-----------------|
|--------tap------|-----------------|-----------------|-----------------|
|-------guitar----|-----------------|-----------------|-----------------|
|-0-------x-------|---------x-------|---------x-------|---------x-------|
"Why?
, . , . , . , . , . , . , . , . , . , . , . , . , . , . , . , .
|-----------------|-----------------|-----------------|-----------------|
|-----------------|-----------------|-----------------|-----------------|
|-----------------|-----------------|-----------------|-----------------|
|-----------------|-----------------|-----------------|-----------------|
|-----------------|-----------------|-----------------|-----------------|
|---------x-------|---------x-------|---------x-------|---------x-------|
Why don't we drive through the night? And we'll wake up down in
A
, . , . , . , . , . , . , . , . , . , . , . , . , . , . , . , .
|-----------------|-0---------------|-----------------|-0---------------|
|-----------2-----|-----------2-----|-----------2-----|-----------2-----|
|-------2-------2-|-------2-------2-|-------2-------2-|-------2-------2-|
|-----2-------2---|-----2-------2---|-----2-------2---|-----2-------2---|
|-0-------0-------|-0-------0-------|-0-------0-------|-0-------0-------|
|-----------------|-----------------|-----------------|-----------------|
Mexico Oh,
(No chords)
, . , . , . , . , . , . , . , . , . , . , . , . , . , . , . , .
|-----------------|-----------------|-----------------|-----------------|
|-----------------|-----------------|-----------------|-----------------|
|-----------------|-----------------|-----------------|-----------------|
|--------tap------|-----------------|-----------------|-----------------|
|-------guitar----|-----------------|-----------------|-----------------|
|-0-------x-------|---------x-------|---------x-------|---------x-------|
I
, . , . , . , . , . , . , . , . , . , . , . , .
|-----------------|-----------------|-----------------|
|-----------------|-----------------|-----------------|
|-----------------|-----------------|-----------------|
|-----------------|-----------------|-----------------|
|-----------------|-----------------|-----------------|
|---------x-------|---------x-------|---------x-------|
I don't know nothin' about, no nothin' about
A
, . , . , . , . , . , . , . , . , . , . , . , . , . , . , . , .
|-----------------|-0---------------|-----------------|-0---------------|
|-----------2-----|-----------2-----|-----------2-----|-----------2-----|
|-------2-------2-|-------2-------2-|-------2-------2-|-------2-------2-|
|-----2-------2---|-----2-------2---|-----2-------2---|-----2-------2---|
|-0-------0-------|-0-------0-------|-0-------0-------|-0-------0-------|
|-----------------|-----------------|-----------------|-----------------|
Mexico Tell me
(No chords)
, . , . , . , . , . , . , . , .
|-----------------|-----------------|
|-----------------|-----------------|
|-----------------|-----------------|
|--------tap------|-----------------|
|-------guitar----|-----------------|
|-0-------x-------|---------x-------|
Why?
, . , . , . , . , . , . , . , . , . , . , . , . , . , . , . , .
|-----------------|-----------------|-----------------|-----------------|
|-----------------|-----------------|-----------------|-----------------|
|-----------------|-----------------|-----------------|-----------------|
|-----------------|-----------------|-----------------|-----------------|
|-----------------|-----------------|-----------------|-----------------|
|---------x-------|---------x-------|---------x-------|---------x-------|
Why won't you love me for who I am where I
A
, . , . , . , . , . , . , . , . , . , . , . , . , . , . , . , .
|-----------------|-0---------------|-----------------|-0---------------|
|-----------2-----|-----------2-----|-----------2-----|-----------2-----|
|-------2-------2-|-------2-------2-|-------2-------2-|-------2-------2-|
|-----2-------2---|-----2-------2---|-----2-------2---|-----2-------2---|
|-0-------0-------|-0-------0-------|-0-------0-------|-0-------0-------|
|-----------------|-----------------|-----------------|-----------------|
am?" He said, "'Cause
Am
, . , . , . , . , . , . , . , . , . , . , . , . , . , . , . , .
|-0---------------|-----------------|-----------------|-----------------|
|-1---------------|-----------------|-----------------|-----------------|
|-2---------------|-----------------|-----------------|-----------------|
|-----------------|-----------------|-----------------|-----------------|
|-0---------------|-----------------|-----------------|-----------------|
|-----------------|-----------------|-----------------|-----------------|
that's not the way the world is baby (That's not the way the world is baby)
E/G#
, . , . , . , . , . , . , . , . , . , . , . , . , . , . , . , .
|-0---------------|-----------------|-----------------|-----------------|
|-0---------------|-----------------|-----------------|-----------------|
|-4---------------|-----------------|-----------------|-----------------|
|-----------------|-----------------|-----------------|-----------------|
|-----------------|-----------------|-----------------|-----------------|
|-4---------------|-----------------|-----------------|-----------------|
This is how I love you, baby (This is how I love you, baby)
Em/G
, . , . , . , . , . , . , . , . , . , . , . , . , . , . , . , .
|-0---------------|-----------------|-----------------|-----------------||
|-0---------------|-----------------|-----------------|-----------------||
|-4---------------|-----------------|-----------------|-----------------||
|-----------------|-----------------|-----------------|-----------------||
|-----------------|-----------------|-----------------|-----------------||
|-3---------------|-----------------|-----------------|-----------------||
This is how I love you, baby (This is how I love you, baby)"
E
, . , . , . , . , . , . , . , . , . , . , . , . , . , . , . , .
||------------------|-----------------|-----------------|-----------------|
||------------------|-----------------|-----------------|-----------------|
||*-----------------|-------4---4-----|-----------------|-----------------|
||*-----2-----4-----|-4/6-------------|-----2-----4-----|-4/6---6---------|
||------------------|-----------------|-----------------|-----------------|
||--0---0---0---0---|-0---0---0---0---|-0---0---0---0---|-0---0---0---0---|
D.S. $$
al Coda
, . , . , . , . , . , . , . , . , . , . , . , . , . , . , . , .
|-----------------|-----------------|-----------------|-----------------||
|-----------------|-----------------|-----------------|-----------------||
|-----------------|-------4---4-----|-----------------|----------------*||
|-----2-----4-----|-4/6-------------|-----2-----4-----|-2--------------*||
|-----------------|-----------------|-----------------|-----------------||
|-0---0---0---0---|-0---0---0---0---|-0---0---0---0---|-0---0---0---0---||
%% Coda
A
, . , . , . , . , . , . , . , . , . , . , . , . , . , . , . , .
||-----------------|-----------------|-----------------|-----------------|
||-----------------|-----------------|-----------------|-----------------|
||-----/6----6-----|-6----6----6-----|-----/6----6-----|-6----6----6-----|
||-----/7----7-----|-7----7----7-----|-----/7----7-----|-7----7----7-----|
||-0---------------|-----------------|-0---------------|-----------------|
||-----------------|-----------------|-----------------|-----------------|
-done Hearts and
E
, . , . , . , . , . , . , . , . , . , . , . , . , . , . , . , .
|-----------------|-----------------|-----------------|-----------------|
|-----/5----5-----|-5----5----5-----|-----/5----5-----|-5----5----5-----|
|-----------------|-----------------|-----------------|-----------------|
|-----/6----6-----|-6----6----6-----|-----/6----6-----|-6----6----6-----|
|-----------------|-----------------|-0---------------|-----------------|
|-0---------------|-----------------|-----------------|-----------------|
bones Hearts and
C#m
, . , . , . , . , . , . , . , . , . , . , . , . , . , . , . , .
|-----------------|-----------------|-----------------|-----------------|
|-----------------|-----------------|-----------------|-----------------|
|------6----6-----|-6----6----6-----|------6----6-----|-6----6----6-----|
|------7----7-----|-7----7----7-----|------7----7-----|-7----7----7-----|
|-4---------------|-----------------|-4---------------|-----------------|
|-----------------|-----------------|-----------------|-----------------|
bones Hearts and
A
, . , . , . , . , . , . , . , . , . , . , . , . , . , . , . , .
|-----------------|-----------------|-----------------|-----------------|
|-----------------|-----------------|-----------------|-----------------|
|------6----6-----|-6----6----6-----|------6----6-----|-6----6----6-----|
|------7----7-----|-7----7----7-----|------7----7-----|-7----7----7-----|
|-0---------------|-----------------|-0---------------|-----------------|
|-----------------|-----------------|-----------------|-----------------|
bones Hearts and
E (no chords after 3rd repeat)
, . , . , . , . , . , . , . , . , . , . , . , . , . , . , . , .
||------------------|-----------------|-----------------|-----------------|
||------------------|-----------------|-----------------|-----------------|
||*-----------------|-------4---4-----|-----------------|-----------------|
||*-----2-----4-----|-4/6-------------|-----2-----4-----|-4/6---6---------|
||------------------|-----------------|-----------------|-----------------|
||--0---0---0---0---|-0---0---0---0---|-0---0---0---0---|-0---0---0---0---|
.....................................
1,2,3,4. |
, . , . , . , . , . , . , . , . , . , . , . , . , . , . , . , . |
|-----------------|-----------------|-----------------|-----------------||
|-----------------|-----------------|-----------------|-----------------||
|-----------------|-------4---4-----|-----------------|----------------*||
|-----2-----4-----|-4/6-------------|-----2-----4-----|-2--------------*||
|-----------------|-----------------|-----------------|-----------------||
|-0---0---0---0---|-0---0---0---0---|-0---0---0---0---|-0---0---0---0---||
...................
5. |
, . , . , . , . |
|-----------------||
|-----------------||
|-----------------|| Fine.
|---2---2---------||
|-----------------||
|-0---0-----------||

\\\\ John Kean
OO | ~~~~~~~~~
< ) ([email protected])
\/ |
`-




Ваше мнение



Капча