Paul Simon - Graceland
This is from Paul Simon's Graceland album.
This is an excellent track takes a little getting used to but it's not that hard
and sounds great.
Any comments to [email protected]
Intro
G-----------------------------------------------------------------------
D-----------------------------------------------------------------------
A-----------------------------------------------------------------------
E---5--5/12--0-----5/12--0----------------------------------------------

Verse (Play all roots just after intro, play notes in brakets every time after)
G---||-----(9)---------(9)---------(9)------------(9)----|
D---||*--------------------------------------------------|
A---||*--7--7--7--7--7--7--7--7--7--7--7--7--7--7--7--7--|
E---||---------------------------------------------------|


G-----(9)---------(9)---------(9)------------(9)----|
D---------------------------------------------------|
A---7--7--7--7--7--7--7--7--7--7--7--7--7--7--7--7--|
E---------------------------------------------------|


G------(14)------------(14)------------(14)------------(14)---
D-------------------------------------------------------------
A---12--12--12--12--12--12--12--12--12--12--12--12--12--12--12
E-------------------------------------------------------------

G------6-----------6-----------6-----------6-----|
D------------------------------------------------|
A---4-----4--4--4-----4--4--4-----4--4--4-----4--|
E------------------------------------------------|


G---------------------4-----------4-----------4-----------4---||--------
D------------------------------------------------------------*||--------
A------------------2-----2--2--2-----2--2--2-----2--2--2-----*||--------
E-------------------------------------------------------------||--------
Chorus
G------||---2--2--0-----1--------------------------1-----------|--------
D------||*-----------2-----2-----2--2--2-----2--2-----4--2-----|--------
A------||*--------------------------------------------------2--|--------
E------||------------------------------------------------------|--------


G---2--2--0-----1----------------------------13----------11-----11------
D------------2-----2-----2--2--2---------14----------13-----------------
A------------------------------------14----------12---------------------
E-----------------------------------------------------------------------

2x
G----||--2--2--0-----1--------------------------1-----------|-----------
D---*||-----------2-----2-----2--2--2-----2--2-----4--2-----|-----------
A---*||--------------------------------------------------2--|-----------
E----||-----------------------------------------------------|-----------


G---2--2--0-----1----------------------------13----------11--11--9------
D------------2-----2-----2--2--2---------14----------13-----------------
A------------------------------------14----------12---------------------
E-----------------------------------------------------------------------


G----------||-----------------------------------------------------------
D---11--9--||-----------------------------------------------------------
A----------||-----------------------------------------------------------
E----------||-----------------------------------------------------------


========================================================================
== Created with BUCKET O' TAB ==
== tablature creation software for Windows ==
== http://www.his.com/~gse/bucket ==
========================================================================




Ваше мнение



Капча