Intro: Riff/E

Riff/E
That would be something.
Riff/E
Really would be something.
Riff/E
That would be something.
A7 E E/G#
Reaching the phone and ringing, mama.
A7 g E7
Reaching the phone and ringing.
A7 E E/G#
Reaching the phone and ringing, mama.
A7 g E7
Reaching the phone and ringing.

That would be something....

Inter: Riff/E

That would be something....

Inter.

That would be something....

Riff/E
x2
e|--------------
B|--------------
G|-4--2-1-2-2-1-
D|--------------
A|--------------
E|-0--0-0-0-0-0-

e|---------------0-0-
B|-1-2-2-2-2-----0-0-
G|-------------------
D|-2-----------------
A|-0-----------------
E|-----------3-0--4--

x2
e|-----------------0-
B|-1-2-2-2-2-------0-
G|-------------------
D|-2-------------2---
A|-0-----------------
E|-----------3-0-----




Ваше мнение



Капча