Somebody Who Cares (Paul McCartney) - TUG OF WAR - 1982
solo
E|------5--5--7--7--5h7p53----|
B|--/5-------------------------|
G|-----------------------------|
D|-----------------------------|
A|-----------------------------|
E|-----------------------------|
E|--0--3--3p0----------|
B|-------------3--1----|
G|---------------------|
D|---------------------|
A|---------------------|
E|---------------------|
E|---------------0---/5--3---|
B|------1---3p1--------------|
G|--0h2----------------------|
D|---------------------------|
A|---------------------------|
E|---------------------------|
E|--8--7--5------5-7-7-7-7-8---10--12---(12)-10--8---7-5--------------|
B|------------------------------------------------------------3h4p31--|
G|---------------------------------------------------------------------|
D|---------------------------------------------------------------------|
A|---------------------------------------------------------------------|
E|---------------------------------------------------------------------|
Tabbed by Fred Waveson




Ваше мнение



Капча