From: Stefano Moroni
I don't know if this is the right way to go but I've tried quite a few times
to ftp and could never get in.
Here's the file I'd like to upload to the archive.
Paul McCartney
PUT IT THERE
from "Flowers in the dirt"
tabbed by Marco "Frank" Ferretti
Cadd9 G/B D/A D Cadd9 G/B D/A D Cadd9
|---3--------------------5-----|---3--------------------0--2-----|---3----------
|------3---3--3---3--3------3--|------3---3--3---3--3---------3--|------3-------
|------0------0------2---------|------0------0------2---------2--|------0-------
|------2------0------0---0--2--|------2------0------0---0-----0--|------2-------
|---3------2------0------------|---3------2------0---------------|---3----------
|------------------------------|---------------------------------|--------------
G/B D/A D Cadd9 G/B D D G
---------------5-----|---3-------------2--|---2--||--|---3-----3----3-----3-----
-3--3---3--3------3--|------3---3--3---3--|---3--||--|------3-----3----3-----3--
----0------2---------|------0------0---2--|---2--||--|------0-----0----0-----0--
----0------0---0--2--|------2------0---0--|---0--||--|------0-----0----0-----0--
-2------0------------|---3------2---------|------||--|---------2----------2-----
---------------------|--------------------|------||--|---3----------3-----------
Give me a hand
D G D
|---(0)--2-----2-----2-----2-----|---3-----3-----3-----3-------|---(0)--2-----2-
|-----------3-----3-----3-----3--|------3-----3-----3-----3----|-----------3----
|-----------2-----2-----2-----2--|------0-----0-----0-----0----|-----------2----
|--------0--0-----0--0--0-----0--|------0-----0-----0-----0----|--------0--0----
|--------------0-----------0-----|---------2-----------2-------|--------------0-
|--------------------------------|---3-----------3-------------|----------------
I'd like to shake it I want to show you I'm your friend
G D
---2-----2-----|---3-----3-----3-----3-----|---(0)--2-----2-----2-----2---------
3-----3-----3--|------3-----3-----3-----3--|-----------3-----3-----3-----3------
2-----2-----2--|------0-----0-----0-----0--|-----------2-----2-----2-----2------
0--0--0-----0--|------0-----0--0--0-----0--|--------0--0-----0--0--0-----0------
---------0-----|---------2-----------2-----|--------------0-----------0---------
---------------|---3-----------------------|------------------------------------
you'll understand if I can make it clear
G D Bm
|---3-----3-----3--------3-----|---(0)--2-----2-----2-----2-----|---2-----2-----
|------3-----3-------3-------3-|-----------3-----3-----3-----3--|------3-----3--
|------0-----0-------0-------0-|-----------2-----2-----2-----2--|------4-----4--
|------0-----0--0----0-------0-|--------0--0-----0--0--0--------|------4-----4--
|---------2--------------2-----|--------------0-----------0--4--|---2-----------
|---3--------------------------|--------------------------------|---------2-----
it's all that matters in the end put it there
A G D A G
-0-----0-------|---------3-----------3-----|---------2------------------|-------
----2-----2----|---3--3-----3--3--3-----3--|------3-----3------2--2--2--|-------
----2-----2----|------0-----0-----0-----0--|------2-----2------2-----2--|-------
----2-----2----|------0-----0--0--0-----0--|---0--0-----0------2-----2--|-------
-0-------------|---------2-----------2-----|---------0------0-----------|-------
-------0-------|---3-----------------------|----------------------0-----|---3---
if it weights a ton that's what a father said to his youngest
Bm A G
---3-----------3-----|---2-----2------0-----0-----|---------3-----------3-------
3-----3-----3-----3--|------3-----3------2-----2--|------3-----3-----3-----3----
0-----0-----0-----0--|------4-----4------2-----2--|------0-----0-----0-----0----
0-----0--0--0-----0--|------4-----4------2-----2--|------0-----0--0--0-----0----
---2-----------2-----|---2------------0-----------|---------2-----------2-------
---------------------|---------2------------0-----|---3-------------------------
son I don't care if it weights a ton as long as
D A Bm G D A
|---------2------------0-----|---2-----2------3-----3-----|--------2------------
|------3-----3------2-----2--|------3-----3------3-----3--|-----3-----3---------
|------2-----2------2-----2--|------4-----4------0-----0--|-----2-----2---------
|---0--0-----0------2-----2--|------4-----4------0-----0--|--0--0-----0---------
|---------0------0-----------|---2-----2--0---------2-----|--------0------0-----
|----------------------0-----|----------------3-----------|---------------------
you and I here put it there as long as you and I here
D
---0-----|---2-----2-----2-----2--3---||----------------------------------------
2-----2--|------3-----3-----3-----3---||----------------------------------------
2-----2--|------2-----2-----2-----0--*||----------------------------------------
2-----2--|---0-----0-----0-----0--2--*||----------------------------------------
---------|----------------------------||----------------------------------------
---0-----|----------------------------||----------------------------------------
put it there
Posted by Stefano Moroni
([email protected])
There might be a slight offset between tab and lyrics here and there but I guess
you'll have to listen to the tape anyway to play the song properly.
Have fun




Ваше мнение



Капча