Paul McCartney and wings
baby im amazed
tabed by Nico Del grosso

|--8--x--x--7--7--7--x--x--6--x--x--5--5--5-|
|--8--x--x--8--8--8--x--x--6--x--x--6--6--6-|
|--9--x--x--7--7--7--x--x--7--x--x--5--5--5-|
|-10--x--x--9--9--9--x--x--8--x--x--7--7--7-|
|-10--x--x-10-10-10--x--x--8--x--x--8--8--8-|
|--8--x--x--7--7--7--x--x--6--x--x--5--5--5-| over and over again

Solo:
|-------------------------------|---------------------------------------|
|----6-8p6-8b-8-6---------------|----6-8p6-8b-8-6-----6p5---6p5---6p5---|
|-/7--------------7-5-/9-10-9-7-|-/7--------------7-5-----5-----5-----5-|
|-------------------------------|---------------------------------------|
|-------------------------------|---------------------------------------|
|-------------------------------|---------------------------------------|

|-------------------------------|-----------------------------------|
|----6-8p6-8b-8-6---------------|----6-8p6-8b-8-6-----6p5---6p5-----|
|-/7--------------7-5-/9-10-9-7-|-/7--------------7-5-----5-----5/7-|
|-------------------------------|-----------------------------------|
|-------------------------------|-----------------------------------|
|-------------------------------|-----------------------------------|




Ваше мнение



Капча