Standard Tuning.

Annoyed me that no-one else had tabbed this out, so here it is for anyone who wants it.
e|-------------------------------------------||
B|-------------------------------------------||
G|----------0--------------------------------||
D|----0--2-----2--0--2--2--0-----2--2--0--2--||
A|-2--------------------------2--------------||
E|-------------------------------------------||

Later in the song its played on the smaller stings as:

e|----------3--------------------------------||
B|-0--3--5-----5--3--5--5--3--0--5--5--3--5--||
G|-------------------------------------------||
D|-------------------------------------------||
A|-------------------------------------------||
E|-------------------------------------------||




Ваше мнение



Капча