YOUR SONG (track 17 of Bigotilyo)
Parokya ni Edgar

[email protected]

Standard tuning: (EADGBE)
Capo on 2nd fret

Verse:

E------0--2--2- -0--2--0-0-0-
B-0/2--0--2--3- -2--3--0-0-0-
G-2-2--1--2--2- -2--2--1-2-1-
D-2-2--2--4--0-play 3x -2--0--2-2-2-
A-0-0--2--4---- -0-----2-2-2-
E------0--2---- -------0-0-0-

Chorus:

E-0-0--0--2--2-
B-0/2--0--3--2-
G-2-2--1--2--21-
D-2-2--2--0--42-play 2x
A-0-0--2-----42-
E------0-----2-

Adlib:

E-0-0--0--2--2-3-2----
B-0/2--0--2--3-3-3----
G-2-2--1--2--2-2-2----
D-2-2--2--4--0-0-0----
A-0-0--2--4-----------
E------0--2-----------

Refrain:

E-2--0--2-3-2--
B-2--0--3-3-3--
G-2--1--2-2-2--play 2x
D-4--2--0-0-0--
A-4--2---------
E-2--0---------

2nd chorus:

E-0-0--0--2--2- -0-
B-0/2--0--3--2- -2-
G-2-2--1--2--21- -2-
D-2-2--2--0--42-play 4x -2-
A-0-0--2-----42- -0-
E------0-----2- ---

=====()w&_17=====




Ваше мнение



Капча