Note: This tab is not copyrighted and you can use this tab for any purpose you like. You can sell it if
want. Yun nga lang kung may bibili pa nito.
Song: Wag Mo Na Sana (Mahal na Kung Mahal)
Artist: Parokya Ni Edgar
Album: Gulong Itlog Gulong
Transcribed by Mark Rilles ([email protected])
Watch Out for the brand new single of Mint entiltled Soft by Rhino Ignacio
Dedicated by Oliver Osana to Joy Bernalez
by anonymous to Hazel
Intro:
E-------------------------------------------------------------------------|
B--------0--------0h1p0--------0--------0h1p0---------0--------0h1p-------|
G------0--------0------------0--------0-------------0--------0------------|
D----0--------2------------0--------2-------------0--------2--------------|
A-----------3---------------------3----------------------3----------------|
E--3---------------------3----------------------3-------------------------|
E------------------------0------------------------------------------------|
B------3-------3-------3--------------------------------------------------|
G----0------2--------0----------------------------------------------------|
D--2-----0---------2------------------------------------------------------|
A----------------3--------------------------------------------------------|
E-------------------------------------------------------------------------|
Verse:
E-------------------------------------------------------------------------|
B--------0--------0h1p0--------0--------0h1p0-----------------------------|
G------0--------0------------0--------0-----------------------------------|
D----0--------2------------0--------2-------------------------------------|
A-----------3---------------------3---------------------------------------|
E--3---------------------3------------------------------------------------|
Naiinis na ako sa iyo???
E-------------------------------------------------------------------------|
B--------0--------0h1p0--------0--------0h1p0-----------------------------|
G------0--------0------------0--------0-----------------------------------|
D----0--------2------------0--------2-------------------------------------|
A-----------3---------------------3---------------------------------------|
E--3---------------------3------------------------------------------------|
Pre Chorus
E------------------------0------------------------0-------2-----2--5--3-2-|
B------3-------3-------3--------3-------3-------3-------3---3-------------|
G----0------2--------0--------0------2--------0-------2-------2-----------|
D--2-----0---------2--------2-----0---------2-------0---------------------|
A----------------3------------------------3-------------------------------|
E-------------------------------------------------------------------------|
Ikaw ba ay naguguluhan???
Chorus
E---------0--------0------0-----0---0--------0---------0-------0-----0---0-|
B---------0--------0------2-----2/0-0--------0---------0-------2-----2/0-0-|
G-------2---------------2-----2------------2-----------------2-----2-------|
D-----3----------6----2-----2------------3-----------6-----2-----2---------|
A--------------6-----------------------------------6-----------------------|
E---0--------4-------------------------0---------4-------------------------|
Wag mo na sana akong pahirapan pa????
E----------0--------0---------------------------------------------3-------|
B----------0--------0------2--------2------2-------4-------1----2---------|
G--------2---------------2--------2------2-------4-------0----3-----------|
D------3----------6----2--------4------2-------4-------2------------------|
A---------------6----------------------------2-------3--------------------|
E---0---------4---------------2-------------------------------------------|
If there are any corrections or comments, don't email me.
Just figure the truth for yourself, and if you can't, throw away or sell your guitar coz you shouldn't be
one. This is an easy song to figure out and tab so bobo ka na kung di mo pa makuha yung iba.




Ваше мнение



Капча