Song: Tungkol Sa'yo
Artist: Parokya ni Edgar
Tabbed by: Jared Uy (09198507486)
Album: Edgar, Edgar Musikahan
Intro Chords: Am - Dm (paulit-ulit lang 'tol)
Play this song using your distortion (wak-wak)
Am Dm
---------0--0-0-0-0-0-0--------------------1--1111-------|
-------1--------------------------------3----------------|
------3------------------------------2-------------------|
----3-----------------------------0----------------------|
--0------------------------------------------------------|
---------------------------------------------------------|
Am Dm
---------0--0-0-0-0-0-0--------------------1--1111-------|
-------1--------------------------------3----------------|
------3------------------------------2-------------------|
----3-----------------------------0----------------------|
--0------------------------------------------------------|
---------------------------------------------------------|
Am Dm
---------0--0-0-0-0-0-0--------------------1--1111-------|
-------1--------------------------------3----------------|
------3------------------------------2-------------------|
----3-----------------------------0----------------------|
--0------------------------------------------------------|
---------------------------------------------------------|
Chorus Chords: (F-Dm-F-Dm-Am)
Text me kung may request kayo..ok..
or e-mail me. [email protected] or [email protected]
visit our site for more info.
www.parokyanijared.50g.com - bibigyan ko kayo # ni chito.




Ваше мнение



Капча