Hi...ako nga pala si Darwin Almonte from San Pedro,Laguna
1st time ko mag tab ng kanta. Sana magustuhan nyo!
kapa ko lng kase pro im 95.9% sure n tama ito!hehehe
[[email protected]] TnB rules!!!!
Intro:
]---------------------------------------|
]---------10-9--------------------------|
]-------9------9-6-9-8------------------|
]--9h11----------------9----------------|
]------------------------7--------------|
]---------------------------------------|
]---------------------------12----------|
]---------10-9------------12------------|
]-------9------9-6-9-9s11---------------|
]--9h11---------------------------------|
]---------------------------------------|
]---------------------------------------|
]
]---------10-9-------------------------|
]-------9------9-6-9-8-----------------|
]--9h11----------------9---------------|
]------------------------7-------------|
]--------------------------------------|
]-------------------12-----------------|
]---------10-9------12-----------------|
]-------9------9----13-----------------|
]--9h11--------------------------------|
]--------------------------------------|
]--------------------------------------|
Note:
For any suggestions,deathreaths,bombthreaths
o kahit anong gusto nyong sabihin sakin, just
e-mail me @ [email protected]




Ваше мнение



Капча