song: tamad si santa claus
band: parokya ni edgar
tabbed by jeff h.([email protected]), gerald([email protected]),
glen b.([email protected])
hey, medyo nahirapan ako sa mabilis na part pero par-aralan
ninyo. Enjoy!
solo(effects:Distortion)
e---------------------------------------------------|
b-----4--4-5-5s7-7-7-7b--7------4--4-5-4--2-2-2b--2-|
g--5-5--5--------------------5-5--5-----------------|
d---------------------------------------------------|
a---------------------------------------------------|
e---------------------------------------------------|

e----------------------------------------------------------------|
b----------------------------------------15b-15-13---15b-15-13---|
g------------------------12-14b-14-12--12---------14----------14-|
d-------9---9-10-10s12-14------------14--------------------------|
a--10-10--10-----------------------------------------------------|
e----------------------------------------------------------------|

e--------------
.
b--12s13---12--
.
g-------14---12
.
d--------------
.
a--------------
.
e--------------
.
that's all!




Ваше мнение



Капча