=========================================================================
Song:Swimming Beach
Tabbed by: Jared Richard Uy (+639198507486)
Artist: Parokya ni Edgar
Album: Edgar,Edgar, Musikahan (Track no. 4)

Hey people, ako yung nag-tab dati ng halaga, at ako ang nag-start na mag-lagay ng PnE tabs dito, tapos
na yung iba e, para ma kasure kayo, punta kayo sa HALAGA na tab..kinapa ko lang to, pero mukhang bagay
kung kailangan nyo ng tabs sakin, just go to: www.parokyanijared.50g.com para Makita nyo din yung band ko..ok. Or e-mail me at [email protected].

Chords for IntroJTayo na nga?)
EM7-AM7- EM7-AM7-G#m-C#m-F#m-B7

Solo Intro:
|----0?0--0-----------------------------------------------------|
|-------------0---3---2-----------------------------------------|
|----------------------------2-2-2---1--------------------------|
|---------------------------------------2-------0----2----------|
|--------------------------------------------2------------------|
|---------------------------------------------------------------|

|----0?0--0-----------------------------------------------------|
|-------------0---3---2---------------------------0-------------|
|----------------------------2----1----------1---------2---1----|
|---------------------------------------2-------------------2---|
|---------------------------------------------------------------|
|---------------------------------------------------------------|

|----0?0--0-----------------------------------------------------|
|-------------0---3---2-----------------------------------------|
|----------------------------2-2-2---1--------------------------|
|---------------------------------------2-------0----2----------|
|--------------------------------------------2------------------|
|---------------------------------------------------------------|

|----0?0--0------------------------------------------------------|
|-------------0---3---2------------------------------------------|
|----------------------------2~ ---------------------------------|
|----------------------------------------------------------------|
|----------------------------------------------------------------|
|----------------------------------------------------------------|

Parokya ni Jared: Morian ? Lead Vocals
Marluie- Back-up Vocals
Jared - Guitars
Jeffert- Bass
Manuel- Drums




Ваше мнение



Капча