Title: Sorry na
Band/artist: Parokya ni Edgar
Tabbed by: dEo

Standard tuning (e B G D A E)

INTRO:

|----------------------------0p2-0---------------------|
|-----2-------2-------2----3-------3-------------------|
|--2-------1-------0------2-2-----2--------------------|
|-2-2-----2-2-----2-2----0-----------------------------|
|0-------0-------0-------------------------------------|
|------------------------------------------------------|

VERSE:
|----------------------------0p2-0---------------------|
|-----2--------2------2----3-------3-------------------|
|--2--------1------0------2-2-----2--------------------| 8x
|-2-2-----2--2----2-2----0-----------------------------|
|0-------0-------0-------------------------------------|
|------------------------------------------------------|

CHORUS:
|-------------------------222222-----------------------|
|-222222--555555----------333333-----------------------|
|-222222--666666----------222222--111111---------------| 2x
|-222222--666666--444444----------222222---------------|
|---------444444--444444----------222222---------------|
|-----------------222222-------------------------------|

**repeat intro**
**repeat verse**
**repeat chorus**




Ваше мнение



Капча