song: sayang
band: parokya ni edgar
tabbed by jeffrey h.([email protected])
hey, this is the filler, solo, and outro. My
friend glen b. will send the lyrics and chords son Enjoy!
filler during intro(clean passage)
e-----12----------------------12-----12--------------------------------|
b---12---10/12-10-9-9/10-10/12-----12--10/12-10-9-9/10--9--9/10------2-|
g-11-----------------------------11----------------------------11-9-2-|
d--------------------------------------------------------------------2-|
a----------------------------------------------------------------------|
e----------------------------------------------------------------------|
solo(effects: Distortion)
e---------------------------12-9---------------------------------------------------|
b---9--9--9--9/10--10--10-10----10-------------------------------------------------|
g---9--9--9--7/11--11--11---------11-9-11-11(b)-9--9-11(b)-9--9-11-11(b)-11*-9-----|
d---9--9--9--9/11--11--11------------------------11---------11----------------11-9-|
a---7--7--7--7/9---9----9----------------------------------------------------------|
e----------------------------------------------------------------------------------|

e----------------------------------------------------------------------------------------|
b-12(b)-12(b)-12-10-9-10-9/10/9--9-9---9-9-----------------------------------------------|
g------------------------------11-11(b)-11(b)----9--9-11-9-11(b)-11(b)-11(b)-12(b)-11----|(b)
d--------------------------------------------9-11-11-------------------------------------|
a----------------------------------------------------------------------------------------|
e----------------------------------------------------------------------------------------|

e------------------12----12-------------------------------------12-14p.o.12--12-|
b-9/10/9-10/12-12(b)-12(b)-12(b)-12/10--10-------------12--12/14-----------14---|
g-------------------------------------11--11----9-11/13--13---------------------|
d-------------------------------------------9-11--------------------------------|
a-------------------------------------------------------------------------------|
e-------------------------------------------------------------------------------|

e-16p.o.12--12-14p.o.12--12-16p.o.12--12-14p.o.12--12-12-|
b---------14-----------14-----------14-----------14------|
g--------------------------------------------------------|
d--------------------------------------------------------|
a--------------------------------------------------------|
e--------------------------------------------------------|
outro(effects: Distortion)
e--------------------12-9---------------------------------------------12-14(b)-12-|
b-9-9-9-9/11-10-10-10----10--------------------------------------12-14------------|
g-9-9-9-9/11-11-11---------11-9-11-11(b)-9--9-11(b)-9--9-11-11/13-----------------|
d-9-9-9-9/11-11-11------------------------11---------11---------------------------|
a-7-7-7-7/9---9--9----------------------------------------------------------------|
e---------------------------------------------------------------------------------|

e--------------------12-9-----------------------------------------------------------|
b-9-9-9-9/11-10-10-10----10---------------------------------------------------------|
g-9-9-9-9/11-11-11---------11-9-11-11(b)-9--9-11(b)-9--9-11-11/13-11-9--------7-7/9-|
d-9-9-9-9/11-11-11------------------------11---------11---------------11-9-7-9------|
a-7-7-7-7/9---9--9------------------------------------------------------------------|
e-----------------------------------------------------------------------------------|
that's all
notations:
/ - slide
(b) - bend 1 whole step
* - hit while bent
p.o. - pull off




Ваше мнение



Капча