Title: sampip ( original) mali kasi yung isa eh!
(tabbed by bryan caranto)

here is the tab of sampip. i dont know if its quite correct but anyway i hope
it can help you.i think the last part is not correct kasi kinapa ko lng yun ehh!

1st part; after the second chorus: (distortion)

E-------------------------------------------------------------------------------
B---8---8---10-10s12-12-10-8-10-8-8------------------7--8-8s10-10-10------------
G-----9---9-------------------------9----------7--9-----------------------------
D-----------------------------------------7--9----------------------------------
A------------------------------------7--9---------------------------------------
E-------------------------------------------------------------------------------

E---12-10-8-10------8-10-10-8-10-8-10-8--8h10-----------------------------------
B--------------10-8---10-10-8-10-8-10-8-------12s10-----------------------------
G-------------------------------------------------------------------------------
D-------------------------------------------------------------------------------
A-------------------------------------------------------------------------------
E-------------------------------------------------------------------------------

E-------------------------------------------------------------------------------
B---12-10-8-10-8-8--7-8-8-7-10-12-12-10-10h12-10-8-10---------------------------
G---------------9-9-------------------------------------------------------------
D-------------------------------------------------------------------------------
A-------------------------------------------------------------------------------
E-------------------------------------------------------------------------------

2nd part; after the 3rd chorus: (distortion)

E-------------------------------------------------------------------------------
B---12s14-14-14-14-12-14-12-10-12-10-10-10-9-14-12-9-10-------------------------
G--------------------------------------11--------------11-----------------------
D-------------------------------------------------------------------------------
A-------------------------------------------------------------------------------
E-------------------------------------------------------------------------------

E-----------------------------12------12------12------12------------------------
B---10-14-14-12-10-12-10-12h14---12h14---12h14---12h14--------------------------
G-------------------------------------------------------------------------------
D-------------------------------------------------------------------------------
A-------------------------------------------------------------------------------
E-------------------------------------------------------------------------------

E--12-12s14-14-12-12-10-9-10-12s12-10-9-14-12-10-12-10-10-----------------------
B--------------------------------------------------------11----------7-8-8s10---
G-----------------------------------------------------------------7-9-----------
D--------------------------------------------------------------7-9--------------
A-----------------------------------------------------------7-9-----------------
E-------------------------------------------------------------------------------

E-----12-10-8-10-----8-10-------------------------------------------------------
B---10-----------10-8-----------------------------------------------------------
G-------------------------------------------------------------------------------
D-------------------------------------------------------------------------------
A-------------------------------------------------------------------------------
E-------------------------------------------------------------------------------

E--10-10-8-10-8-10-8-8h10-------------------------------------------------------
B--10-10-8-10-8-10-8-----12s10-12-10-8-10-8-8-8-7-8-8-7-10-12-12-10s12-10-8-10-8
G--------------------------------------------9-9--------------------------------
D-------------------------------------------------------------------------------
A-------------------------------------------------------------------------------
E-------------------------------------------------------------------------------




Ваше мнение



Капча