Song: Pumapatak ang Ulan
Artist: Parokya ni Edgar
Tabbed by: Jared Uy 9198507486
Album: Edgar, Edgar Musikahan
Composed by: Danny Javier (APO)
Intro : DM7
-----------------2--0----------------------------------------|
-----------------2--2----------------------------------------|
-------------2-----------------------------------------------|
---------0---------------------------------------------------|
-------------------------------------------------------------|
-------------------------------------------------------------|
DM7
-----------------2--0----------------------------------------|
-----------------2--2----------------------------------------|
-------------2-----------------------------------------------|
---------0---------------------------------------------------|
-------------------------------------------------------------|
-------------------------------------------------------------|
DM7
-----------------2--0----------------------------------------|
-----------------2--2----------------------------------------|
-------------2-----------------------------------------------|
---------0---------------------------------------------------|
-------------------------------------------------------------|
-------------------------------------------------------------|
DM7
-----------------2--0----------------------------------------|
-----------------2--2----------------------------------------|
-------------2-----------------------------------------------|
---------0---------------------------------------------------|
-------------------------------------------------------------|
-------------------------------------------------------------|
Chords (Verse) Em-A7-Em-A7-DM7-G-F#m-B7sus-B7-Em-A7-DM7
Jared: Tignan niyo na lang sa SONGHITS yung chords, intro lang bibgay ko
riff kasi eh..bye!




Ваше мнение



Капча