Song: please don't touch my birdie
Band: paorkya ni edgar
Tabbed by jeffrey hernandez
Hey guys, its me again. this is the outro of the song since my friend already put the intro and solo. so enjoy.
Outro:(effect: distortion)
e------------------------------------------------------------------------|
b------------------------------------------------------------------------|
g-------6-7---9---9s11--11-9-8-9-8-9-11b-11b-11b---11b-9--9s11-9-8s9s8s9-|
d---6s7--7--7---7---------------------------------------10---------------|
a------------------------------------------------------------------------|
e------------------------------------------------------------------------|

e--------------9-10-9--------------------------------------------5p0-7p0-9p0-10p0-12-|
b--------10-12-------10----------------------9-10-9------------9---------------------|
g---9s11----------------11b-9------------9-11-------9-9s11-9-11----------------------|
d-----------------------------11b-9---11b--------------------------------------------|
a------------------------------------------------------------------------------------|
e------------------------------------------------------------------------------------|

That's all. if you have any comments e mail me at [email protected]




Ваше мнение



Капча