title: mr. suave
artist: Parokya ni Edgar
transcribe by: richard santos
e-mail: [email protected]

intro:

guitar 1

e|-2---------------0-0-4-5-4/5-0---------5-7-7-5-4-------2-4-5--
B|-3---3---3---2-3-0-------------2-0---7-----------7---2--------
G|-4-4---4---4-----1-----------------6---------------2----------
D|--------------------------------------------------------------
A|--------------------------------------------------------------
E|--------------------------------------------------------------

e|-2---------------------------------------------------2--------
B|-3---3---3---2-3-0-------------------3-2/3-0---------2--------
G|-4-4---4---4-------2-1---2-1/21---2---------2-1-----2--------
D|-----------------------2---------2---------------4-2-4--------
A|--------------------------------------------------------------
E|--------------------------------------------------------------

guitar 2

chord plucking

Bm E A F#m Bm E F#m Fm F#m

e|--2----0----5----2----2----0----2----1--2-----
B|--3----0----5----2----3----0----2----1--2-----
G|--4----1----6----2----4----1----2----1--2-----
D|--4----2----7----4----4----2----4----3--4-----
A|--2----2----7----4----2----2----4----3--4-----
E|--x----0----5----2----x----0----2----1--2-----

verse 1:

guitar 1

e|-2---------------0-4-5-4-0-4-0-----4-5-5-4----------2---------
B|-3---3---3---3-------------------7---------7------2-----2-----
G|-4-4---4---4---4---------------6-------------6--2---------2---
D|--------------------------------------------------------------
A|--------------------------------------------------------------
E|--------------------------------------------------------------

e|-2-----------------------------------2-------1--2-------------
B|-3---3---3---2-3-0-----------------2---2---2-1--2-------------
G|-4-4---4---4-------2-1---2-1---1-------------1--2-------------
D|-----------------------2-----2---4-------4--------------------
A|--------------------------------------------------------------
E|--------------------------------------------------------------

guitar 2 - same as the intro

verse 2:

guitar 1

e|-2-------------------------------5-7-7-5-4-------2-4-5--------
B|-3---3---3---2-3-----5/75-----7-----------7---2--------------
G|-4-4---4---4-----4^--4/64---6---------------2----------------
D|--------------------------------------------------------------
A|--------------------------------------------------------------
E|--------------------------------------------------------------

e|-2-----------------------------------2-------1--2-------------
B|-3---3---3---2-3-0-----------------2---2---2-1--2-------------
G|-4-4---4---4-------2-1---2-1---1-------------1--2-------------
D|-----------------------2-----2---4-------4--------------------
A|--------------------------------------------------------------
E|--------------------------------------------------------------

guitar 2 - same as the intro

chorus:

guitar 1

e|--14----16----12----14-14-14-14-14----16----14-14-14-13-14-
B|----------------------------------------------------------------
G|----------------------------------------------------------------
D|----------------------------------------------------------------
A|----------------------------------------------------------------
E|----------------------------------------------------------------

guitar 2

chord strumming

Bm E A F#m Bm E F#m Fm F#m

e|--2----7----5----2----2----7----2----1--2---
B|--3----9----5----2----3----9----2----1--2---
G|--4----9----6----2----4----9----2----1--2---
D|--------------------------------------------
A|--------------------------------------------
E|--------------------------------------------




Ваше мнение



Капча