MANIWALA KA SANA TABLATURE
(transcribed by Carlo Averia)
intro filler: (clean tone)
C Am F G
1 ---12-12-12-12---12-12-12-12---13-13-13-13---15-15-15-15---
2 ---13-13-13-13---13-13-13-13---13-13-13-13-----------------
3 ---12-12-12-14---14-14-14-14-------------------------------
4 -----------------------------------------------------------
5 -----------------------------------------------------------
6 -----------------------------------------------------------
solo: (clean tone or chorus)
1 ----------------------------------------------7--8-8/10-8-7--------------------
2 ---5-5-6----2-0-------------------------------8------------8/10-8--------------
3 ---------7------0-2---2-0-2-2/3-2---------7---7-------------------10-7/9-7-5---
4 ----------------------------------3---5/7--------------------------------------
5 -------------------------------------------------------------------------------
6 -------------------------------------------------------------------------------
1 --------------------------------------------------8-7-8-------------10-------------
2 ------------------------6-6-5-6---5/6--6-6---8/10------10-8--8-10(b)--10(b)-8--8---
3 -----5-4-5-5/7--4-5-7-7---------7----7---------------------9-----------------9-----
4 ---7-------------------------------------------------------------------------------
5 -----------------------------------------------------------------------------------
6 -----------------------------------------------------------------------------------
notations:
/ - slide
(b) - bend 1 whole step




Ваше мнение



Капча