Title: Lab Sung
Artist: Parokya Ni Edgar
Tabbed by: Dabe ([email protected])
Wala lang akong magawa kaya ginawa ko na lang ‘to... Astig ‘tong kantang ‘to.
Tugtugin nyo sa mga syota nyo kung gusto mo nang mag-break kayo... hehe
Tuning: Standard (EADGBE)

Intro:
A C#m D A E
E|----------0------------------4--------------2------------0--------0-----|
B|---2------2----2----5------------5---3------3----3---2------0-----------|
G|---2----2------2----6------6-----6---2----2------2---2-----------1------|
D|------2------------------6-------6---0--0------0---------------2----2---|
A|---0---------0---0--4--4-------4---------------------0------------------|
E|------------------------------------------------------------0-----------|
A C#m D E
E|------------0----------------4----------------2-----------------0--|-----------|
B|---2------2-----2(/3)--5-----5---5---3------3------3----------0----|-----------|
G|---2----2-------2------6---6-----6---2----2--------2--------1------|-----------|
D|------2---------2--------6-------6---0--0--------0--------2--------|-----------|
A|---0----------0--------4-------4------------------------2----------|---2-0-2---|
E|------------------------------------------------------0------------|-----------|
Verse:
A C#m D A E
E|------------0----------------4----------------2------------0--------0----------|
B|---2------2-----2(/3)--5-----5---5---3------3------3---2------0----------------|
G|---2----2-------2------6---6-----6---2----2--------2---2-----------1-----------|
D|------2---------2--------6-------6---0--0--------0---------------2----2--------|
A|---0----------0--------4-------4-----------------------0-----------------------|
E|--------------------------------------------------------------0----------------|
Akala mo siguro na ako’y nagbibiro
A C#m D E
E|------------0----------------4----------------2----------------0---------------|
B|---2------2-----2(/3)--5-----5---5---3------3------3---0-----0-----0-----------|
G|---2----2-------2------6---6-----6---2----2--------2-------1-------1-----------|
D|------2---------2--------6-------6---0--0--------0-------2-------2-------------|
A|---0----------0--------4-------4-----------------------------------------------|
E|-------------------------------------------------------0-----------------------|
nang aking aminin na ang puso ko’y sa’yo
A C#m D A E
E|------------0----------------4----------------2------------0--------0----------|
B|---2------2-----2(/3)--5-----5---5---3------3------3---2------0----------------|
G|---2----2-------2------6---6-----6---2----2--------2---2-----------1-----------|
D|------2---------2--------6-------6---0--0--------0---------------2----2--------|
A|---0----------0--------4-------4-----------------------0-----------------------|
E|--------------------------------------------------------------0----------------|
Akala mo yata na ako’y nagpapatawa

A C#m D E
E|------------0----------------4----------------2----------------0---------------|
B|---2------2-----2(/3)--5-----5---5---3------3------3---0-----0-----0-----------|
G|---2----2-------2------6---6-----6---2----2--------2-------1-------1-----------|
D|------2---------2--------6-------6---0--0--------0-------2-------2-------------|
A|---0----------0--------4-------4-----------------------------------------------|
E|-------------------------------------------------------0-----------------------|
nang aking sabihin na minamahal kita

Ending:
D E
E|----2--------2----------------0---|---x-x-------|
B|----3------3---3------------0-----|---x-x-------|
G|----2----2-------2--------1-------|---x-x-(pop)-|
D|----0--0----------------2---------|---x-x---2---|
A|----------------------2-----------|---x-x-------|
E|--------------------0-------------|---x-x-------|
tama ang hinala mo...
Any comments/suggestions/corrections, here’s my address: [email protected]
Astig. Natapos din. Sigurado akong tama ‘to. Binabati ko sila Joel, Arvin Daryll,
Nick, Francis, Marion, JC, Chino(pa), Marlon, Eugene at lahat ng mga kaklase ko.
Astig ang SPHS Batch 2003-2004. Astig ang IV-Love.
Peace out




Ваше мнение



Капча