***********************************************************************************
Title: Iwanan Mo Na Siya
Artist: Parokya ni Edgar
Album: Bigotilyo
tabbed by: shortysphere
standard tuning (EADGBe)
***********************************************************************************
intro chords:
A-C#m7-DM7-E

intro:
e||--5--------------------0--------5-7-7/9/10-9-5-0---------------------|
B||----5---3-3-2-2h3-3/5--5/7-5---5-----------------4-3-----------------|
G||-6---------------------------6------------------------2h4------------|
D||----------------------------------------------------------2----------|
A||---------------------------------------------------------------------|
E||---------------------------------------------------------------------|
Stanza:
A-C#M7-DM7-E(4X)
Refrain:
DM7-C#M7-DM7-D-E
(pluck out pattern:DGBeBG while doing chord)
(Repeat stanza and refrain pattern for second stanza)
Chorus:
A-C#M7-DM7-E(4X)-DM7-C#M7(2X)-DM7-D-E
solo:
e|-5-5-4------------------------------5-7-5--9/10-9---------------------------------|
B|-------7-5--5-5-3-2-3--3-3-2-3-5--5---------------10------------------------------|
G|-----------------------------------------------------9--9-8-7---------------------|
D|--------------------------------------------------------9-8-7--9-9-9-7------------|
A|---------------------------------------------------------------|---|---7--7/12----|
E|---------------------------------------------------------------*****--------------|
|
(Stanza)(Refrain2X) (this part is very fast)
(Chorus)
outro:
e|-5h7-7/9-9/10-9-------------------5--------10-12-
B|----------------9--9h10p9------------10h12-------
G|--------------------------9-7-6-7----------------
D|-------------------------------------------------
A|-------------------------------------------------
E|-------------------------------------------------
e --5h7-7/9-9/10-9-----------------------------------||
B -----------------9----------7----------------------||
G --------------------9-8-7/9---7-------------9------||
D --------------------9-8-7-------7--7/9-9/11----9-7-||
A ---------------------------------------------------||
E ---------------------------------------------------||
[email protected]




Ваше мнение



Капча