halaga
solo (effect: distortion)
e---3s5---5----3--2--3---2--3s5--5--3--2--0s2--0s2s0---0-----
b------------------------------------------------------------
g------------------------------------------------------------
d------------------------------------------------------------
a------------------------------------------------------------
e------------------------------------------------------------
e--------10-12/14--14--12s14---12s14--12--9s10--9------------
b--10/12-----------------------------------------------------
g------------------------------------------------------------
d------------------------------------------------------------
a------------------------------------------------------------
e------------------------------------------------------------
e------------------------------------------------------------
b------------------------------------------------------------
g--9/11--11--11--9--7--9---7--6--4---------------------------
d------------------------------------------------------------
a------------------------------------------------------------
e------------------------------------------------------------




Ваше мнение



Капча