HALAGA TABLATURE
intro/filler/outro: (distortion)
guitar 1
1 -------0--2-3-2-0-2-----------5-3-2-3-2------0---------
2 -----3--------------3-------------------3---3--3-2-3---
3 ---2------------------2----/4-------------2------------ 2x
4 -------------------------------------------------------
5 -------------------------------------------------------
6 -------------------------------------------------------
guitar 2
1 ------------14-15-14--14------------17-15-14-15-14------------------------
2 ------15-17---------15--15------------------------15-----15-17-15-14-15---
3 ---14---------------------14----/16-------------------14------------------ 2x
4 --------------------------------------------------------------------------
5 --------------------------------------------------------------------------
6 --------------------------------------------------------------------------
solo (distortion)
1 -------------------------------------------------------------
2 ---/10-10-10-10--8-7-8---7-8/10-10--8-7--7----7--------------
3 -----------------------------------------9(b)---9(b)-7---7---
4 -------------------------------------------------------9-----
5 -------------------------------------------------------------
6 -------------------------------------------------------------
1 ----------------17-------------------------------------------------------
2 --------15-17(b)--17(b)---17(b)-15-17-15-14------------------------------
3 ---14/16--------------------------------------/11-11-11-11-9-7/9-7-6-4---
4 -------------------------------------------------------------------------
5 -------------------------------------------------------------------------
6 -------------------------------------------------------------------------
notations:
/ - slide
(b) - bend 1 whole step




Ваше мнение



Капча