ABSORBING MAN
Parokya ni Edgar
[email protected]
standard tuning: (EADGBE)
Intro:
E-1-1h3p1--1--1--0---------------------
B-3--------1--3--2---------------------
G-2--------2--3--2--------0-2-0--------
D-0--------3--3--2--0-2-3-------3-0----
A----------3--1--0---------------------
E----------1---------------------------
Verse:
E--1--1--1--0-
B--3--1--3--2-
G--2--2--3--2-
D--0--3--3--2-play 2x
A-----3--1--0-
E-----1-------
Chorus: (w/distortion)
E--------------- ---------------
B--------------- ---------------
G-33--55--753-3- --77--55--33--2-
D-33--55--753-3-play 2x --77--55--33--2-
A-11--33--531-1- --55--33--11--0-
E--------------- ----------------
Adlib:
E-1-1h3p1--1--1--0---------------------
B-3--------1--3--2---------------------
G-2--------2--3--2--------0-2-0--------
D-0--------3--3--2--0-2-3-------3-0----play 2x
A----------3--1--0---------------------
E----------1---------------------------
2nd chorus: (2x)
E--------------- ---------------
B--------------- ---------------
G-33--55--753-3- --77--55--33--2-
D-33--55--753-3-play 2x --77--55--33--2-
A-11--33--531-1- --55--33--11--0-
E--------------- ----------------
2nd adlib & bridge:
E--------------------
B--11--13---151311-
G--10--12---141210-continuous
D--8---10---12108--w/flange effect
A--------------------
E--------------------
=====()w&_17=====




Ваше мнение



Капча