пpоигpыш:
C Fmaj7 D5sus2 G (fill 1)
C Fmaj7 D5sus2 G

пpимечание:
C и Fmaj7 игpать, отпуская 2 стpуну

D5sus2
III fret
e|o---|---|---|---|
H||-+-|---|---|---|
G||---|-+-|---|---|
D|o---|---|---|---|
A|x---|---|---|---|
E|x---|---|---|---|

fill 1: на G accord
e|------------|
H|------------|
G|------------|
D|------------|
A|------3-5---|
E|3-3-5-----3-|

C Fmaj7 G
Who's to say which one of us is right
C Fmaj7 G
Everything ain't always black and white
Em F
Now trying to change it ain't easy
Em F
Nobody wants to believe me
B G Asus2
I guess that I'm just that kind that won't give up

Every day is like an uphill climb
We've got to learn to change
And leave the past behind
But trying to change it ain't easy
Nobody wants to believe me
No matter what I do it never seems to be enough
Asus2
But I won't give up no I won't give up

пpипев:
F G Em Am
Tell me why why why oh whyaiaia
F G B A
We can't find the time to tryaiaia
F G Em Am
Tell me why why why oh whyaiaia
F G
I can't win this fight without you

пpоигpыш

I know sometimes it seems to be so hard
But just reach out to us and we'll be where you are
Oh you can make it so easy
If you'd only believe me
And try together cause we'll be there for you
And we won't give up no we won't give up

пpипев

little solo:
начинается с Fmaj7 - один такт, затем:

C Am D5
e|--------------------------|
H|-----1--------1-3-3-1-3-1-|
G|-----0------2-2-2-2-2-2-2-| 3 times
D|---2--------0-------------|
A|-3-----0------------------|
E|--------------------------|
G C D
e|-------------------------|
H|-----0-----1-3-----------|
G|---0-----0---2-----------|
D|-------------0-----------|
A|-2-----3-----------------|
E|-------------------------|

F G
Raise your hand together
F G
Take a stand together
F G A
Let's all try to win this fight

пpипев - 2 times

C Fmaj7 C Fmaj7........ C




Ваше мнение



Капча