Прислал: Alexander Yanenkov, [email protected]

Riff 1 :
|---------------------------------------------------|
|-------4-----4-----4-----4-------3-----3-------1-3-|
|-----5-----5-----5-----5-------3-----3-----3-4-----| 4 times
|---5-----5-----5-----5-------3-----3-----3---------|
|-3-------------------------1-----------------------|
|---------------------------------------------------|

Cm Fm G# G
Stranger next to me, have I seen your face
Cm Fm G# G
Stranger tell me please, have I seen this place
Oh stranger you're so close I can hold your hand
I'm a stranger oh just like you don't you understand
Oh stranger

Silence stopped the time I can hear your heart
Glimmer of your eyes reach me from the dark
I'm dreaming or may be not clothing's falling down
All matters we're giving up
Cause nothing matters now
Oh stranger
CHORUS:
Between the walls and face to face. Oh stranger
We won't have another chance. Oh stranger
There won't be another night
Cm Fm G
(We couldn't lie)
Riff 2:
Cm____Fm____G#________G
|-5-----1-----------------|
|-4-----1---------5-----4-|
|-5-----1---------6-----5-|
|-5-----3-------6---------|
|-3-----3----\4---------3-|
|-------1-----------------|
Oh stranger With me tonight
You're stranger With me all night
My stranger My stranger
We couldn't lie
2 Вариант
Прислал: Дмитрий, [email protected]

Interlude
(include Bass line)

Interlude:
Cm Ab B G7
E|---------------------------------|------------------------------|
H|-------4-------4-------4-------4-|------3-------3-------0---1-3-|
G|---0-------0-------0-------0-----|----0-------0-------0---------|
D|-----6-------6-------6-------6---|--3-------3-------3-----------|
A|-3-------------------------------|1-----------------------------|
E|-----------------4---------------|----------------3-------------|

* Dm7
3FRET
E|-|-|X|-|-|
H|-|-|+|-|-|
G|-|-|-|-|+|
D|-|-|+|-|-|
A|-|-|-|-|+|
E|-|-|X|-|-|

Verse 1:
Cm Dm7* Fm G7
Stranger next to me, have I seen your face
Cm Dm7 Fm B7 G7
Stranger tell me please, have I seen this place
Cm Dm7 Fm G7
Oh stranger you're so close I can hold your hand
Cm B Fm B7 G7
I'm a stranger oh just like you don't you understand Oh .....

Interlude

Verse 2:
Silence stopped the time I can hear your heart
Glimmer of your eyes reach me from the dark
I'm dreaming or may be not clothing's falling down
All matters we're giving up 'cause nothing matters now
Ab G7 Cm
Oh stranger........

CHORUS:
Ab G7 Cm Cm/B
Between the walls and face to face. Oh stranger
Ab G7 Cm Cm/B
We won't have another chance. Oh stranger
Fm G7 Cm B Ab G7
There won't be another night....

Verse 3:
Flowers on the floor, all around your hair
Morning at the door, I don't think you care
You whisper in my ear, shiver in my arms
Don't let it stop, don't go away screaming in your eyes

Oh stranger.....

CHORUS

Cm B Gm
We couldn't lie.......
Ab G B
Oh stranger (With me tonight)
Ab G B
You're stranger (With me all night)
Ab G Cm
My stranger, my stranger... We couldn't lie.......

Solo:

Ab Cm |B F |Ab Cm |Eb Ab B|
Ab Cm |B F |Ab Cm |Eb Ab B|
Ab B |Ab B |Ab B |C |C/D |C/Eb |C

CHORUS

Cm B Gm
We couldn't lie.......
Ab G B
Oh stranger (With me tonight)
Ab G B
You're stranger (With me all night)
Ab G
My stranger, my stranger...

Interlude
-------------------------------------------------------------------
Bass line:
Interlude:
Cm Ab B G7
G|----|----|----|----|
D|----|----|----|----|
A|3---|----|1---|----|
E|----|4---|----|3---|

Verse 1,2,3:
Cm Dm7 Fm G7 Cm Fm B7 G7
G|--------|--------|--------|--------|
D|--------|--------|--------|--------|
A|3-------|--------|3-------|--1-2---|
E|--------|1-4-3---|--------|1-------|

Cm Dm7 Fm G7 Cm B Fm B7 G7
G|--------|--------|--------|--------|
D|--------|--------|--------|--------|
A|3-------|--------|3---1---|--1-2---|
E|--------|1-4-3---|--------|1-------|

CHORUS

Ab G Cm Cm/B Ab G Cm Cm/B Fm G7 Cm B
G|--------|--------|--------|--------|--------|--------|
D|--------|--------|--------|--------|--------|--------|
A|--------|3---1---|--------|3---1---|--------|3---1---|
E|4---3---|--------|4---3---|--------|1---3---|--------|




Ваше мнение



Капча