From: Bjoern Winkler
'True Belief' as recorded by Paradise Lost on 'ICON'
Tab: as heard by Bj"orn Winkler
Send corrections, additions etc to: [email protected]
Send flames to: [email protected]
[email protected]---
Tune down a semitone for this song. Listen to the CD to get the timing.
|-----------Riff 1----------------------|
e:-----------------------------------------|
B:-----------------------------------------|
G:6h8------6h8------6h8--------------------|
D:6h8------6h8------6h8------6------4------|
A:6--------6--------6--------6------4------|
E:6--------6--------6--------4------2------|

|------Intro Lead ---------------------------
e:--------------------------------------------|
B:--------------------------------------------|
G:--------------------------------------------|
D:6h8------6h8------6h8--8h9--9p8--8p6--6-----|
A:--------------------------------------------|
E:--------------------------------------------|

----------------------------------------------------------
e:---------------------------------------------------------|
B:---------------------------------------------------------|
G:---------------------------------------------------------|
D:6--8--8h9p8-----9--8--6----------------------------------|
A:-------------------------6----4--4-----------------------|
E:------------------------------------6--6--6--4--2--2--2--|
PM PM PM PM

---------------------------------------------------------------------------
e:---------------------------------------------------------------------------|
B:---------------------------------------------------------------------------|
G:---------------------------------------------------------------------------|
D:---------------6--8--9--9h11--11/13--13/16--16/18/20--20h21---20h21p20p18--|
A:---------6--9--------------------------------------------------------------|
E:6--7--9--------------------------------------------------------------------|
|_______PM___________|

-----------|
e:------------|
B:------------|
G:------------|
D:----18~~~~~~|
A:21----------|
E:------------|
Feedback

|-----Riff 2---------------------------------------------------|
e:----------------------------------------------------------------|
B:----------------------------------------------------------------|
G:----------------------------------------------------------------|
D:6-6-6-6-6-6-6-6-4-4-4-4-4-4-6-6-4-4-4-4-4-4-4-4-2-2-2-2-2-2-4-4-|
A:6-6-6-6-6-6-6-6-4-4-4-4-4-4-6-6-4-4-4-4-4-4-4-4-2-2-2-2-2-2-4-4-|
E:4-4-4-4-4-4-4-4-2-2-2-2-2-2-4-4-2-2-2-2-2-2-2-2-0-0-0-0-0-0-2-2-|
|____________PM___________| |______________PM___________|

|-----Bridge---------------------------------------------------------------
e:---------------------------------------------------------------------------|
B:---------------------------------------------------------------------------|
G:---------------------------------------------------------------------------|
D:4-4-4-4-4-4-4-4-6-6-6-6-6-6-6-6-9-9-9-9-9-9-9-9-8-8-8-8-8-8-8-8-4-4-4-4-4-4|
A:4-4-4-4-4-4-4-4-6-6-6-6-6-6-6-6-9-9-9-9-9-9-9-9-8-8-8-8-8-8-8-8-4-4-4-4-4-4|
E:2-2-2-2-2-2-2-2-4-4-4-4-4-4-4-4-7-7-7-7-7-7-7-7-6-6-6-6-6-6-6-6-2-2-2-2-2-2|
|______________________PM__________________________________________________

--------------------| |-------Bridge Lead----------------------------------
e:---------------------|-----------------------------------------------------|
B:---------------------|-----------------------------------------------------|
G:---------------------|-----------------------------------------------------|
D:-4-4-6-6-6-6-6-6-6-6-|----------------6-6-6-6-6-6-6-6-9-9-9-9-9-9-9-9-8-8-8|
A:-4-4-6-6-6-6-6-6-6-6-|9-9-9-9-9-9-9-9--------------------------------------|
E:-2-2-4-4-4-4-4-4-4-4-|-----------------------------------------------------|
____________________|

------------------------------------------|
e:-------------------------------------------|
B:-------------------------------------------|
G:-------------------------------------------|
D:-8-8-8-8-8-----------------6-6-6-6-6-6-6-6-|
A:-----------9-9-9-9-9-9-9-9-----------------|
E:-------------------------------------------|

|--------Chorus------------------------------------------------|
e:----------------------------------------------------------------|
B:----------------------------------------------------------------|
G:----------------------------------------------------------------|
D:6-------------6-9-------------9-8-------------8-8---------------|
A:6-------------6-9-------------9-8-------------8-8---------------|
E:4-------------4-7-------------7-6-------------6-6---------------|

|-------Chorus Lead--------------------------------------------|
e:----------------------------------------------------------------|
B:----------------------------------------------------------------|
G:----------------------------------------------------------------|
D:9-8-8-9-8-8-9-8-9-8-8-9-8-8-9-8-8-6-6-8-6-6-8-6-8-6-6-8-6-8-6-5-|
A:----------------------------------------------------------------|
E:----------------------------------------------------------------|

2nd Time
e:---------------------|
B:---------------------|
G:---------------------|
D:6~~~~~~~~~~~~~~~~~~~~|
A:---------------------|
E:---------------------|
Feedback

|---Break 1---------------------------|
e:---------------------------------------|
B:---------------------------------------|
G:---------------------------------------|
D:8---8-11----\-11-13----4-3-4-3-4-3-4-3-|
A:8---8-11----\-11-13----4-3-4-3-4-3-4-3-|
E:6---6-9-----\-9--11----2-1-2-1-2-1-2-1-|

|-----Break 2-----------------------|
e:-------------------------------------|
B:-------------------------------------|
G:---------------------9-8-9-8-9-8-9-8-|
D:6---6-9----\-9-11----9-8-9-8-9-8-9-8-|
A:6---6-9----\-9-11----7-6-7-6-7-6-7-6-|
E:4---4-7----\-7-9---------------------|

|------Outro Lead--------------------------------
e:------------------------------------------------|
B:------------------------------------------------|
G:------------------------------------------------|
D:---6-6-6---6-6-8-9-8-----9-9-8---6-6-9---9-8-6--|
A:10-------------------9--------------------------|
E:------------------------------------------------|

---------------------------------------------|
e:----------------------------------------------|------------|
B:----------------------------------------------|------------|
G:----------------------------------------------|------------|
D:6-6-6-6---6-6-8-9-8-----9-9-8---6-6-9---9-8-6-|6~~~~~~~~~~~|
A:--------------------9-------------------------|------------|
E:----------------------------------------------|------------|
Feedback
Now here is the order of the parts:
2 * Riff 1 w/Intro Lead
4 * Riff 2
1 * Bridge w/Bridge Lead
2 * Chorus w/Chorus Lead
4 * Riff 2
1 * Bridge w/Bridge Lead
2 * Chorus w/Chorus Lead
2 * Break 1
2 * Break 2
2 * Riff 2
1 * Bridge w/Bridge Lead
4 * Chorus w/Chorus Lead
2 * Chorus w/Outro Lead
That's it.





Ваше мнение



Капча