tuning 1 Whole Step
ARTIST Paradise Lost
SONG The Sufferer
ALBMN One Second
TRANSCRIBED BY Mark Graham
DATE 30.01.98
TIME 9.30pm GMT
any corrections Comments or for a Chat your welcome to [email protected]
Riff 1
I find when Im
|----------------------------------------------------------------------|
|----------------------------------------------------------------------|
|----------------------------------------------------------------------|
|-8/-9--9--9-9-9-9--9-9------------------------------------------------|Both
|-6/-7--7--7-7-7-7--7-7---9--9-9-9-9-9--9---9----7--7--7-7-7-7-7--7----|
|-------------------------7--7-7-7-7-7--7---7----5--5--5-5-5-5-5--5----|
|------------------------------------------|
|------------------------------------------|
|------------------------------------------|
|----------------------8--8----------------|
|--5--5-5--5--5-4--4---6--6----------------|
|--3--3-3--3--3-2--2-----------------------|
Riff 2
|-----------------------------------------|
|-----------------------------------------|
|-----------------------------------------|
|---2-------------------------------------|
|---2-----2-2-2-2--Damped-----------------|
|---0-----0-0-0-0-------------------------|
Riff 3
|--------------------------------------------------------------------|
|--------------------------------------------------------------------|
|------------------------------------x 2-----------------------------|Both
|---2~~--------------------------------------------------------------|
|----------4~~-----3~~-----------------------------------------------|
|------------------------5~~~----------------------------------------|
Riff 3
3rd Time greg plays above riff
|--------------------------------------------------------------------|
|--------------------------------------------------------------------|
|--------------------------------------------------------------------|Aaron
|--9-------6-------5-----2-------------------------------------------|
|--7-------4-------3-----0-------------------------------------------|
|--------------------------------------------------------------------|





Ваше мнение



Капча