From: Kai Lehtinen
Date: Sat, 29 Jun 1996 15:20:18 +0300 (EET DST)
"The Last Time" from "Draconian Times" by Paradise Lost
I'm not sure if it is right but thats the way i hear it.
I didnt get the solo so if someone knows how it goes
please mail me ([email protected]).
The Last Time
Tune down 1 step =============
to DGCFAd
Rhy.Fig.1
A D F
||-----------------|-----------------|-------------------------|
||-----------------|-----------------|-------------------------|
||-----------------|-----------------|-------------------------|
||-----------------|-9-9-9-9-9-9-9-9-|-12-12-12-12-12-12-12-12-|
||-9-9-9-9-9-9-9-9-|-7-7-7-7-7-7-7-7-|-10-10-10-10-10-10-10-10-|
||-7-7-7-7-7-7-7-7-|-----------------|-------------------------|
G
|-----------------||
|-----------------||
|-----------------||
|-----------------||
|-7-7-7-7-7-7-7-7-||
|-5-5-5-5-5-5-5-5-||
Rhy.Fig.2
E
||-----------------|-----------------||
||-----------------|-----------------||
||-----------------|-----------------|| Palm mute gets looser
||-4-4-4-4-4-4-4-4-|-4-4-4-4-4-4-4-4-|| from begining to end.
||-4-4-4-4-4-4-4-4-|-4-4-4-4-4-4-4-4-||
||-2-2-2-2-2-2-2-2-|-2-2-2-2-2-2-2-2-||
PM.-------------------------------|
Riff 1
||-----------------|-----------------||
||-----------------|-----------------||
||-----------------|-----------------||
||-----------------|-----------------||
||-9-9-9-9-9-9-9-9-|-9-9-9-999999999-||
||-----------------|-----------------||
Rhy.Fig.3
A F
||-----------------|--------------------|-----------------|-----------------|
||-----------------|--------------------|-----------------|-----------------|
||-----------------|--------------------|-----------------|-----------------|
||-9---9---9---9-9-|---9-9---9/11-11/12-|-5---5---5---5-5-|---5-5---5\4-4\2-|
||-9---9---9---9-9-|---9-9---9/11-11/12-|-5---5---5---5-5-|---5-5---5\4-4\2-|
||-7---7---7---7-7-|---7-7---7/9---9/10-|-3---3---3---3-3-|---3-3---3\2-2\0-|
E G
|-----------------|-----------------||
|-----------------|-----------------||
|-----------------|-----------------||
|-4---4---4---4-7-|---7-7---7---7---||
|-4---4---4---4-7-|---7-7---7---7---||
|-2---2---2---2-5-|---5-5---5---5---||
Riff 2
||-----------------|--------------------|----------------------|
||-----------------|--------------------|----------------------|
||-----------------|--------------------|----------------------|
||-9---9---9---9-9-|---9-9---9/11-11/12-|----------------------|
||-----------------|--------------------|-10---10---10---10-10-|
||-----------------|--------------------|----------------------|
|--------------------|-----------------|-----------------||
|--------------------|-----------------|-----------------||
|--------------------|-----------------|-----------------||
|--------------------|---------------7-|---7-7---7---7---||
|---10-10---10\9-9\7-|-9---9---9---9---|-----------------||
|--------------------|-----------------|-----------------||
Rhy.Fig.4
A F
||-----------------|-----------------|-----------------|-----------------|
||-----------------|-----------------|-----------------|-----------------|
||-----------------|-----------------|-----------------|-----------------|
||-9---9-9-9-9-9-9-|-9-9-9-9-9-9-9-9-|-5---5-5-5-5-5-5-|-5-5-5-5-5-5-5-5-|
||-9---9-9-9-9-9-9-|-9-9-9-9-9-9-9-9-|-5---5-5-5-5-5-5-|-5-5-5-5-5-5-5-5-|
||-7---7-7-7-7-7-7-|-7-7-7-7-7-7-7-7-|-3---3-3-3-3-3-3-|-3-3-3-3-3-3-3-3-|
PM.--------------------------| PM.--------------------------|
E D G
|-----------------|-----------------|-----------------|-----------------||
|-----------------|-----------------|-----------------|-----------------||
|-----------------|-----------------|-----------------|-----------------||
|-4---4-4-4-4-4-4-|-4-4-4-4-4-4-4-4-|-2---2-2-2-2-2-2-|-7---7-7-7-7-7-7-||
|-4---4-4-4-4-4-4-|-4-4-4-4-4-4-4-4-|-2---2-2-2-2-2-2-|-7---7-7-7-7-7-7-||
|-2---2-2-2-2-2-2-|-2-2-2-2-2-2-2-2-|-0---0-0-0-0-0-0-|-5---5-5-5-5-5-5-||
PM.--------------------------| PM.--------| PM.--------|
Rhy.Fill 1
G
|------------|
|------------|
|------------|
|-7-7--7-----|
|-7-7--7-----|
|-5-5--5-----|
Song:
Rhy.Fig.1
Rhy.Fig.2 + Riff 1
Rhy.Fig.3 + Riff 2 x 2
Rhy.Fig.4 x 2
Rhy.Fig.2 + Riff 1
Rhy.Fig.3 + Riff 2 x 2
Rhy.Fig.4 x 2
Rhy.Fig.2 + Riff 1
Rhy.Fig.3 + Riff 2 x 2
Rhy.Fig.2 + Riff 1
Rhy.Fig.3 + Solo x 2
Rhy.Fig.1
Rhy.Fig.2 + Riff 1
Rhy.Fig.3 + Riff 2
Rhy.Fig.3 + Riff 2 (first 5 bars)
Rhy.Fill 1
If you think its not right please send me correction.
E-mail:([email protected]) and Caius in IRC





Ваше мнение



Капча