THE LAST TIME
-----------------
Transcription by S & P
Tune down 1 step

RIFF1
guitar1
d---------------------------------------------------------------------------------
A---------------------------------------------------------------------------------
F---------------------------------------------------------------------------------
C-------------------------9-9-9-9-9-9-9-9-12-12-12-12-12-12-12-12-----------------
G--9--9--9--9--9--9--9--9-7-7-7-7-7-7-7-7-10-10-10-10-10-10-10-10-7-7-7-7-7-7-7-7-
D--7--7--7--7--7--7--7--7-----------------------------------------5-5-5-5-5-5-5-5-

guitar2
d---------------------------------------------------------------------------------
A---------------------------------------------------------------------------------
F--11-11-11-11-11-11-11-11-9-9-9-9-9-9-9-9-7--7--7--7--7--7--7--7-6-6-6-6-6-6-6-6-
C--9--9--9--9--9--9--9--9--9-9-9-9-9-9-9-9-9--9--9--9--9--9--9--9-7-7-7-7-7-7-7-7-
G---------------------------------------------------------------------------------
D---------------------------------------------------------------------------------

RIFF2
guitar1 / guitar2
d--------------------------------------------------
A--------------------------------------------------
F--11-11-11-11-11-11-11-11-11-11-11-11-11-11-11-11-
C--------------------------------------------------
G--4--4--4--4--4--4--4--4--4--4--4--4--4--4--4--4-- PM only these strings
D--2--2--2--2--2--2--2--2--2--2--2--2--2--2--2--2-- /
PM -------------------------------------------| (Loosens till end)

RIFF3
guitar1
d------------------------------------------------------------------
A------------------------------------------------------------------
F------------------------------------------------------------------
C--4-4-4-4-4-4-4-4/6-6/7-------------------------------------------
G--2-2-2-2-2-2-2-2/4-4/5-5-5-5-5-5-5-5-54-42-4-4-4-4-7-7-7-7-7-7-
D------------------------3-3-3-3-3-3-3-32-2-2-2-2-2-5-5-5-5-5-5-

guitar2 plays: d---------- during RIFF3
A----------
F----------
C--9-9-9-9-
G----------
D----------

RIFF4 a
guitar1
d--------------------------------------------------------------------------------------------
A--------------------------------------------------------------------------------------------
F--------------------------------------------------------------------------------------------
C--4-----------------------------------------------------------------------------------------
G--2-2-2-2-2-2-2-2-2-2-2-2-2-2-2-5-----------------------------4-----------------------------
D--------------------------------3-3-3-3-3-3-3-3-3-3-3-3-3-3-3-2-2-2-2-2-2-2-2-2-2-2-2-2-2-2-
PM-------------------------| PM-------------------------| PM--------------------------|

d----------------------------------
A----------------------------------
F----------------------------------
C----------------------------------
G--2---------------7---------------
D--0-0-0-0-0-0-0-0-5-5-5-5-5-5-5-5-
PM-----------| PM-----------|

RIFF4 b
guitar2
d-----------------------------------------------------------------------------
A-----------------------------------------------------------------------------
F--11-11-11-11-11-11-11-11-11-11-11-11-11-11-11-7-7-7-7-7-7-7-7-7-7-7-7-7-7-7-
C--9--9--9--9--9--9--9--9--9--9--9--9--9--9--9--9-9-9-9-9-9-9-9-9-9-9-9-9-9-9-
G-----------------------------------------------------------------------------
D-----------------------------------------------------------------------------

d-----------------------------------------------------------------------------
A-----------------------------------------------------------------------------
F--11-11-11-11-11-11-11-11-11-11-11-11-11-11-11-7-7-7-7-7-7-7-7-6-6-6-6-6-6-6-
C--9--9--9--9--9--9--9--9--9--9--9--9--9--9--9--9-9-9-9-9-9-9-9-9-9-9-9-9-9-9-
G-----------------------------------------------------------------------------
D-----------------------------------------------------------------------------

SOLO
d--7h9p7---7h10p7---7h9p7---7h10p7--------10h12p10----10h13p10-----------
A--------7--------7-------7--------7---------------10----------10--------
F------------------------------------ect.--------------------------ect.--
C------------------------------------------------------------------------
G------------------------------------------------------------------------
D------------------------------------------------------------------------

d--12h14p12----12h15p12---------14-16-17--16h17p16-14-16-14----14-----
A-----------12----------12----------------------------------17----17--
F--------------------------ect.---------------------------------------
C---------------------------------------------------------------------
G---------------------------------------------------------------------
D---------------------------------------------------------------------

d--------------------------------------------------------------------
A--15-17-15-14h15p14----14-------------------------------------------
F--------------------16----16-14-16-14-14-12h14p12----12-------------
C--------------------------------------------------14----14-12----14-
G--------------------------------------------------------------14----
D--------------------------------------------------------------------

d--14h17p14----14h19p14---------------
A-----------14----------14------------
F--------------------------ect.--12--
C------------------------------------
G------------------------------------
D-------------------------------------





Ваше мнение



Капча