tuning 1 WHOLE STEP DOWN
ARTIST Paradise Lost
SONG Soul Courageous
ALBMN One Second
TRANSCRIBED BY Mark Graham
DATE 06.02.98
TIME 18.57pm GMT
any corrections Comments or for a Chat your welcome to [email protected]
Intro
Riff 1
|--------------------------------------------------------------------|
|--------------------------------------------------------------------|
|--4--4-4p2--4-4--2h4------------------------------------------------|Aaron
|--4--4-4p2--4-4--2h4------------------------------------------------|Some kinda effect
|--------------------------------------------------------------------|on this
|--------------------------------------------------------------------|
Riff 1
|--------------------------------------------------------------------|
|--------------------------------------------------------------------|
|--------------------------------------------------------------------|Gregor
|---9-9-9p7-9-9-7h9--------------------------------------------------|
|--------------------------------------------------------------------|
|--------------------------------------------------------------------|
Riff 2
|---------------------------------------------------------------------|
|-------Strum---------------------------------------------------------|
|---------------------------------------------------------------------|
|--4-------------------9----------------------------------------------|Aaron
|--4---------7---------9----------------------------------------------|
|--2---------0---------7----------------------------------------------|
Riff 2
|--------------------------------------------------------------------|
|--------------------------------------------------------------------|
|--------------------------------------------------------------------|
|---9-9-9p7-9-9-7h9--------------------------------------------------|
|--------------------------------------------------------------------|
|--------------------------------------------------------------------|
Riff 3
I could not care Less
Victory's in vain
|--------------------------------------------------------------------|
|--------------------------------------------------------------------|
|--4~~~~~~-----------------------------------------------------------|Both
|--------------------------------------------------------------------|
|--------------------------------------------------------------------|
|--------------------------------------------------------------------|
Riff 4
Alluring you on sight
Spirit Maketh Man
|--------------7-5--5-7--------------------------7-5-5-7------------------------|
|--0-0-0-0--0------------7~-5-7-5~~---0-0-0-0-0-----------7--5h7p5*--------------|
|-------------------------------------------------------------------------------|Greg
|-----------------------------------------------------------------*dip bar down--|
|-------------------------------------------------------------------------------|
|-------------------------------------------------------------------------------|
Riff 5
In this battle of ages
|-------------------------------------------------------------------|
|-5-5-3-5-3-5--/7-5-3-3h5-3-----------3--------3--------------------|
|---------------------------4-2-2-2-4---4-2-4----repeat-------------|Gregor
|-------------------------------------------------------------------|
|-------------------------------------------------------------------|
|-------------------------------------------------------------------|
Riff 5
In this battle of ages
|--------------------------------------------------|
|--------------------------------------------------|
|--------7------4----------------------------------|Aaron
|--2-----7------4----------------------------------|
|--2-----5------2----------------------------------|
|--0-----------------------------------------------|
Riff 6
SEEEEEE You bring me
|---------------------------------------------------------------------|
|-------Strum---------------------------------------------------------|
|---------------------------------------------------------------------|
|--4-------------------9----------------------------------------------|Aaron
|--4---------7---------9----------------------------------------------|
|--2---------0---------7----------------------------------------------|
Riff 6
SEEEEEE You bring me
|--------------------------------------------------------------------|
|--------------------------------------------------------------------|
|--------------------------------------------------------------------|Gregor
|---9-9-9p7-9-9-7h9--------------------------------------------------|
|--------------------------------------------------------------------|
|--------------------------------------------------------------------|
Riff 7
|---------------------------------------------------------------------|
|---------------------------------------------------------------------|
|---------------------------------------------------------------------|Aaron
|--9------------------------------------------------------------------|
|--9------------------------------------------------------------------|
|--7------------------------------------------------------------------|
Riff 7
|--------------------------------------------------------------------|
|--------------------------------------------------------------------|
|--------------------------------------------------------------------|Gregor
|---9-9-9p7-9-9-7h9--------------------------------------------------|
|--------------------------------------------------------------------|
|--------------------------------------------------------------------|





Ваше мнение



Капча