tuning 1 Whole Step Down
ARTIST Paradise Lost
SONG Shadowkings
ALBMN Draconian Times
TRANSCRIBED BY Mark Graham
DATE 15/09/97
TIME 7.51PM GMT
any corrections welcome to or for a good crack
[email protected]
Paradise Lost : Shadowkings /Draconian Times/
Tune down a whole step ( DAFCGD )
Intro
Riff 1
|------------------|-----------------
|------------------|-----------------
|------------------|----6------------GREG
|----4-------------|--4---7-6-7-6-4--
|--2---5-4-5-4-2-4-|-----------------
|------------------|-----------------
Riff 1
|-------|------|-------|-------------|------|------|-----|------------|
|-------|------|-------|-------------|------|------|-----|------------|
|--4----|------|-------|-------------|--4---|------|-----|------------|Aaron
|--4----|--4---|--2----|--7-7--------|--4---|--2---|--5--|--7-7--4-4--|
|--2----|--4---|--2----|--5-5--7-7---|--2---|--2---|--5--|--7-7--4-4--|
|-------|--2---|--0----|-------5-5---|------|--0---|--3--|--5-5--2-2--|
Riff 2
|--------------------|-----------------|
|--------------------|-----------------|
|--------------------|--8--6-----------|Gregor
|-6-8-9-8-------6-6--|---------8--6-6--|
|----------9-9-------|-----------------|
|--------------------|-----------------|
Riff 2
Voices Appear
|-----------------------------------------|
|-Strum-----------------------------------|
|---------------------6-------------------|Aaron
|--13---11-----9---------------9-9--------|
|--11---9------7------4--------7-7--------|
|--------------0---------------0-0--------|
Riff 3
|-----------------|------------------|
|-----------------|------------------|
|-----------------|------------------|Greg
|--7--6--4--2-4---|--9--7--0--2--4---|
|-----------------|------------------|
|-----------------|------------------|
Riff 3:
The spiral Movement
|------|----------|-----|------|------|------|
|----Strum Damped-|-----|------|------|------|
|------|----------|-----|------|------|------|Aaron
|------|----6-----|-4---|--2---|---2--|--4---|
|-4----|----4-----|-2---|--2---|---0--|--2---|
|-2----|----------|-----|------|------|------|
Solo
|-----------------------------------------------------------------|
|-----------------------------------------------------------------|
|-------8-8h9p8---8-----------8-8h9p8---8-------------------------|Gregor
|-/11-9---------9---/11-----9---------9------7--6--4---2----2h4---|
|-----------------------------------------------------------------|
|-----------------------------------------------------------------|
|---------------------------------------------------------------|
|---------------------------------------------------------------|
|-------8-8h9p8---8---------8-8h9p8---8-------------------------|Gregor
|-/11-9---------9----/11--9---------9----7--6--4---2--2h4-------|
|---------------------------------------------------------------|
|---------------------------------------------------------------|
|----------------------------------------------|
|----------------------------------------------|
|----------------------------------------------|Gregor
|-4-6-4h6p4------------------------------------|
|-----------4~~--------------------------------|
|----------------------------------------------|
Outro Solo
|------------------------------------------------------------------------
|--------------------------10-10-10-9--10-9------------------------------
|---11--9-11-9-11--9-11---------------------11-9-11---------------------Gregor
|----------------------------------------------------11-9-11---9-11-9-11-
|------------------------------------------------------------------------
|------------------------------------------------------------------------
|---------------------------
|--------------------------- End of Solo
|---------------------------
|-12-11-9------------repeat till fade-------
|---------12-11-9-----------
|---------------------------
Riff Solo
|------------------------------------------------|
|--Strumed---------------------------------------|
|-------11---9---6---4------9------6----2----4---|Aaron
|-------11---9---6---4------9------6----2----4---|
|-------9----7---4---2------7------4----0----2---|
|------------------------------------------------|
end Riff Solo





Ваше мнение



Капча