Tuning :1 Whole Step
ARTIST :Paradise Lost
SONG :Shades Of God
ALBMN :Draconian Times
TRANSCRIBED BY Mark Graham
any corrections welcome to
[email protected]
riff 1
|-----------------------------------------------------------------------|
|---------------------------12----------12------------------------------|
|----9-11-9----9-12-9--9-12-----12-9-11----11--x4-----------------------|gregor
|-9---------9-----------------------------------------------------------|
|-----------------------------------------------------------------------|
|-----------------------------------------------------------------------|
|--------------------------------------------------------------------|
|--------------------------------------------------------------------|0.12
|----9----7-----5----4-----------------------------------------------|Aaron
|--------------------------------------------------------------------|
|----7----5-----3----2-----------------------------------------------|
|--------------------------------------------------------------------|
riff2
with wah-wah
|-------------------------------------b------------------------------|
|--12-10---------12-10-------12-10-12-12-12--------------------------|
|---------12--9--------12-9------------------------------------------|
|--------------------------------------------9-7-9-9h10p9-7-5-7------|Gregor
|--------------------------------------------------------------------|
|--------------------------------------------------------------------|
riff 2
|----------------------------------------------------------------------------|
|----------------------------------------------------------------------------|
|----------------------------------------------------------------------------|Aaron
|--2-----------------------------------2-------------------------------------|
|--2--22--7--77--5--5-7---9--7--5--7---2--22-7--77--5--5--7--9-7-5--2--------|
|--0--00--5--55--3--3-5---7--5--3--5---0--00-5--55--3--3--5--7-5-3--0--------|
the fire has gone
are you the one
|--------------------------------------------------------------------|
|--------------------------------------------------------------------|
|--------------------------------------------------------------------|
|-12-11----4---9-x2-------14--13---6---11--x2------------------------|Riff 3
|-10--9----2---7----------12--11---4---9-----------------------------|Both
|--------------------------------------------------------------------|
Riff 4
|--------------------------------------------------------------------|
|--------------------------------------------------------------------|
|--7--9--10--9--7---6--7--9--10-9-7-9-6-7------9~~-------------------|Greg
|--------------------------------------------------------------------|
|--------------------------------------------------------------------|
|--------------------------------------------------------------------|
Riff 4
|--------------------------------------------------------------------|
|--------------------------------------------------------------------|
|--------------------------------------------------------------------|aaron
|--7----5---3---2------7---5---3--2----------------------------------|
|--5----3---1---0------5---3---1--0---5--4---9-----------------------|
|-------------------------------------3--2---7-----------------------|
chorus
they search for faith
|-----------------------------------------------------------------------|
|-----------------------------------------------------------------------|
|-----------------------------------------------------------------------|Aaron
|--2-----------------------------------2--------------------------------|
|--2--22--7--77--5--5-7---9--7--5--7---2--22-7--77--5--5--7--9-7-5--2---|
|--0--00--5--55--3--3-5---7--5--3--5---0--00-5--55--3--3--5--7-5-3--0---|
interlude before solo
|--------------------------------------------------------------------|
|-------------------------12---------12----------------12------------|
|----9-11-9---9-12-9-9-12----12-9-11----11--------9-11----11---------|
|--9--------9-------------------------------(x2)---------------------|
|--------------------------------------------------------------------|
|--------------------------------------------------------------------|
Solo
|---------15----------------------17----------------------15------------|
|------17---17-----------------19---19-----------------17----17---------|
|---16--------16------------18--------18------------16---------16-------|Gregor
|-14-------------17-14---16--------------19-16---14---------------17-14-|
|-----------------------------------------------------------------------|
|-----------------------------------------------------------------------|
|--------------------12h15p12------------------------------------------------|
|-----------------------------15--x4----12h15p12-----------------------------|
|-15p14----14--------------------fast------------15--x4----------------------|Gregor
|-------17----17-14-----------------------------------fast-------------------|
|----------------------------------------------------------------------------|
|----------------------------------------------------------------------------|
|12-10------------------------------10---------12------10-----------12-------|
|-----12-10------------b-------10h12---12-10h12---10h12---12--10h12----12----|
|----------12-9------7-9-9-7-------------------------------------------------|Gregor
|--------------12--9---------9-----------------------------------------------|
|----------------------------------------------------------------------------|
|----------------------------------------------------------------------------|
|----------------------------------------------------------------------------|
|---------------------------------------------b-10--10------------12~~~~-----|
|-10p9----9------10p9----9-----------------7--9-----9b--9p7------------------|Gregor
|------12---12-9------12----12-9-------7-9------------------9----------------|
|----------------------------------7-9---------------------------------------|
|----------------------------------------------------------------------------|
Chords for solo
|----------------------------------------------------------------------------|
|----------------------------------------------------------------------------|
|----------------------------------------------------------------------------|AARON
|--9---7---5---4-------------------------------------------------------------|
|--7---5---3---2-x4----7--5--9-----------------------------------------------|
|----------------------5--3--7-----------------------------------------------|





Ваше мнение



Капча