Riff A (Chorus):
----------------
Rythem:
---|
---|
---|
---|
|--5-4-----7---|
|------7-5-----|
-----------------------------------------------------------------|
--------------------b-b-------b-b-------b-b----------------------|
|------b-b---------b-b-----7----7-7---7---7-7---7---7-7--------b-b----b-b----|
|--9---9-9-----2---2-2-----7----7-7---7---7-7---7---7-7----7---7-7-7--7-7-7--|
|--9---9-9-----2---2-2-----5----5-5---5---5-5---5---5-5----7---7-7-7--7-7-7--|
|--7---7-7-----0---0-0-------------------------------------5---5-5-5--5-5-5--|
Lead:
--------------------------------------------|
--------------------------------------------|
-11-9----p--h----9---//------p------------|
|--9---9-9---------12-11-12-----9--------12-11----------|
-----------------------------------9--7-7---|
--------------------------------------------|
Bass:
-----------------------------------------------------------------|
-----------------------------------------------------------------|
-----------------------------------------------------------------|
-----------------------------------------------------------------|
---------------5----5-5---5---5-5---5---5-5----------------------|
|--7---7-7-----0---0-0-------------------------------------5---5-5-5--5-5-5--|
Riff B (Pre verse):
------------------
Rythem:
---------------------|
---------------------|
---------------------|
|--2-----------------------------|
|--0-----------------------------|
Lead (acoustic part):
------------------------------|
------------------------------|
|------4-------4-------4-------4-------4--|
|----5-------5-------5-------5-------5----|
|--7-------7-------7-------7-------7------|
------------------------------|
Bass:
---------------------------------------|
---------------------------------------|
---------------------------------------|
---------------------------------------|
---------------------------------------|
|--0--0--0--0--0--0--0--0--0--0--0--0--0--0--0--0--|
Riff C (Verse):
---------------
Rythem:
---------------------|
---------------------|
-------5-------4-----|
|--2-------5-------5-------4--5--|
|--2-------5-------3-------2--5--|
|--0-------3------------------3--|
Lead (another acoustic part):
|------3-------3-------3-------3------3--|
|----5-------5-------5-------5------5----|
|--4-------4-------4-------4------4------|
-----------------------------|
-----------------------------|
-----------------------------|
Bass:
------------------------|
------------------------|
------------------------|
------------------------|
-------3-3-3-3----------|
|--0-0-0-0-3-3-3-3---------2-2-3-3--|
Riff D (Pre Chorus):
--------------------
Rythem:
--------------------------------------------------------------|
--------------------------------------------------------------|
--------------------------------------------------------------|
|--7--7--7--7--7--7--7--7--5--5--5--5--5--5--5--5--2-2---2-2---2-2---2-2--|
|--7--7--7--7--7--7--7--7--5--5--5--5--5--5--5--5--2-2---2-2---2-2---2-2--|
|--5--5--5--5--5--5--5--5--3--3--3--3--3--3--3--3--0-0---0-0---0-0---0-0--|
-----------------------------------------------------|
-----------------------------------------------------|
---------------------b-b-------b-b-------------------|
|--2--2---2-2--2-2--2-2-------7--7-7----5--5-5----2-2--2-2--2-2--|
|--2--2---2-2--2-2--2-2-------7--7-7----5--5-5----2-2--2-2--2-2--|
|--0--0---0-0--0-0--0-0-------5--5-5----3--3-3----0-0--0-0--0-0--|
Lead:
--------------------------------------------------------------|
--------------------------------------------------------------|
---------------------------------------9-9---9-9---9-9---9-9--|
|--7--7--7--7--7--7--7--7--5--5--5--5--5--5--5--5-------------------------|
--------------------------------------------------------------|
--------------------------------------------------------------|
-----------------------------------------------------|
-----------------------------------------------------|
|--9--9---9-9--9-9--9-9----------b-b-------b-b-------------------|
------------------7--7-7----5--5-5----2-2--2-2--2-2--|
------------------7--7-7----5--5-5----2-2--2-2--2-2--|
------------------5--5-5----3--3-3----0-0--0-0--0-0--|
Bass:
-----------------------------------------------------------|
-----------------------------------------------------------|
-----------------------------------------------------------|
-----------------------------------------------------------|
-----------------------------------------------------------|
|--5--5--5--5--5--5--5--5--3--3--3--3--3--3--3--3--0-0--0-0--0-0--0-0--|
-----------------------------------------------------|
-----------------------------------------------------|
-----------------------------------------------------|
-----------------------------------------------------|
-----------------------------------------------------|
|--0--0---0-0--0-0--0-0-------5--5-5----3--3-3----0-0--0-0--0-0--|
Riff E (Connection Part):
-------------------------
Rythem:
------------------|
------------------|
--------b-b--b-b--|
|--4----5----2------5-5--5-5--|
|--4----5----2------5-5--5-5--|
|--2----3----0------3-3--3-3--|
Lead:
-------------------|
-------------------|
|---------p--h---14----p--h----|
|--16---16-14-16-----16-14-16--|
-------------------|
-------------------|
Bass:
------------------|
------------------|
------------------|
------------------|
------------------|
|--2----3----0------3-3--3-3--|
SOLO - by Gregor McKintosh - Use Wah-Wah and Delay.
-----------------------------------------------------------------|
-----------------------------------------------------------------|
|--16--19-16--19-16--19-16--19-16---14-16-14----14---------------------------|
---------------------------------17----17-14-17-14----14---------|
---------------------------------------------------17----17-14---|
-----------------------------------------------------------------|
// //
----------------------------------//---//----------19----19----|
----------//---//---p---------17----17-------------------------|
14------16----16----16-14---h---------------16-19-16-------------|
|-----14-17----17---------------------14-17----------------------------------|
|--17------------------------------------------------------------------------|
-----------------------------------------------------------------|
|--17------------------------------------------------------------------------|
|------20--17--20-17----17-------------------------------//-10-///------|
---------19----19-16-19-16------------------9-------9------------|
---------------------------19-17-19-17---12----------------------|
-----------------------------------------------------------------|
-----------------------------------------------------------------|
-------------------------------------------------------------|
|------/--10------------------------------------------------------------|
|----9--------9--9-----------------h--p----------------------------------|
|--12----------12-12--10-12-10--9-9-10-9-----9---------------------------|
-----------------------------12---12-10---12-10-9---10-9-----|
--------------------------------------------------------12---|
-----------------17-15-12---17-15-12---17-15-12---17-15-12--|
------------------------------------------------------------|
------------------------------------------------------------|
---//-----------------------------------------------------|
|--9----------7---------------------------------------------------------|
|----12-10-9------------------------------------------------------------|
p p p p p p p p p p p p p p
|-17-15-12---17-15-12---17-15-12---17-15-12---17-15-12---17-15-12---17-15-12-|
-----------------------------------------------------------------|
-----------------------------------------------------------------|
-----------------------------------------------------------------|
-----------------------------------------------------------------|
-----------------------------------------------------------------|
p p p p p p p p p p
|-17-15-12---17-15-12---17-15-12---17-15-12---17-15-12--|
--------------------------------------------|
--------------------------------------------|
--------------------------------------------|
--------------------------------------------|
--------------------------------------------|
|---p--p-----------p--p-----------p--p----------p--p----------p--p------------|
|-17-15-12-------17-15-12-------17-15-12------17-15-12------17-15-12----------|
------------------------------------------------------------------|
------------------------------------------------------------------|
------------------------------------------------------------------|
------------------------------------------------------------------|
|---p--p-----------p--p-----------p--p----------p--p------p--p-------//------|
|-17-15-12-------17-15-12-------17-15-12------17-15-13--15-13-12---10---------|
------------------------------------------------------------------|
------------------------------------------------------------------|
------------------------------------------------------------------|
------------------------------------------------------------------|
------------------------------------------------------------------|
------------------------------------------------------------------|
--------------12--------------------------------------------------|
-----------12----14-12----12--------------------------------------|
|----------12-14-12-14-------------14----14-12--------p--///----------------|
|-15-12-15-------------------------------------15---15-12---------------------|
Filling A (Played before the pre-verse):
---------------------------------------
(Rythem only):
|
|
|
|-----9-----|
|-7-7---10--|
|
Structure:
---------
A A filling B C B C D filling B C B C D A A E E E E - Solo - A A A A
Note: On Gregor's solo the Bass and Rythem Guitars Play: A A E E D.
Lyrics (by Nick Holmes):
-----------------------
I am the one, to which you'll go
You are the one from which I'll run...
Fading to grey
The wanton prey
You'll find shelter, I'll find none
I'll leave your pointless life undone
Breaking your days, My anguish stays
Fate, fate of my laughter, the loss of your sight
Hate, hating the vicious lies, I will revel insane
I see you face, I've seen your face
I turn and run, You'll have no place
Time, time is the father, in my corrupt mind
Pain, echos, in the silent sky...
Remember life now??
Wow that was tiring but worth it. Now you all can enjoy playing
this wonderfull song.
People like gregor are a dying breed.





Ваше мнение



Капча