Paradise Lost

by Paradise Lost
from the fabulous '90 album 'lost paradise'
transcribed by Christian Reindel([email protected])
any questions or corrections- e-mail me
Copyright (c) (Peaceville) (1990)
Version 1.0 - (02.06.04)
Tune down to B (2.5 steps)
~ bend the note normal
~~~~~ bend the note rapidly
Intro
Riff 1 - 2 times
guitar 1 2x
B |------------------------------------------------------------------|
F#|------------------------------------------------------------------|
D |------------------------------------------------------------------|
A |-10-------------------------------9-------------------------------|
E |--8-------------------------------7-------------------------------|
B |------------------------------------------------------------------|
guitar 2 2x
B |------------------------------------------------------------------|
F#|-5h6p5h6p5h6p5h6p5h6p5h6p5h6p5h6--4h5p4h5p4h5p4h5p4h5p4h5p4h5p4h5-|
D |------------------------------------------------------------------|
A |------------------------------------------------------------------|
E |------------------------------------------------------------------|
B |------------------------------------------------------------------|
guitar 1 2x
B |------------------------------------------------------------------|
F#|------------------------------------------------------------------|
D |------------------------------------------------------------------|
A |------------------------------------------------------------------|
E |--6-------------------------------3-------------------------------|
B |--4-------------------------------1---------------------------/---|
guitar 2 2x end riff 1

B |-3h4p3h4p3h4p3h4p3h4p3h4p3h4p3h4----------------------------------|
F#|----------------------------------5h6p5h6p5h6p5h6p5h6p5h6p5h6p5h6-|
D |------------------------------------------------------------------|
A |------------------------------------------------------------------|
E |------------------------------------------------------------------|
B |------------------------------------------------------------------|
Fill 1
B |-----------------------------------------------------------|
F#|-----------------------------------------------------------|
D |-------------3--4------------------------------------------|
A |-------6--7--1--2--4--5------------------------------------|
E |-3--4--4--5--------2--3-------3-3-----2-2-----3-3-----2-2--|
B |-1--2---------------------2-2-----2-2-----2-2-----2-2------|
. . . . . . . . . . . . . . . . p.m.
Riff 2 - 4 times - claws of death grip my life ...
B |--------------------------------------------------------|
F#|--------------------------------------------------------|
D |--------------------------------------------------------|
A |---------------------------------------------8----------|
E |-4--4-4-4--4-4--3~~~-2~~~--3--3-3-3--3-3--7--6--5--4----|
B |-2--2-2-2--2-2-------------1--1-1-1--1-1--5--6--3--2----|

Riff 3 - 3 times - running in circles ...
B |---------------------------------------|
F#|---------------------------------------|
D |---------------------------------------|
A |---------------------------------------|
E |-4--4-4-4--2-1-1-----4-4---------------|
B |-2--2-2-2--------2~--2-2--2--4--5--2---|
. . p.m.
Riff 3a - 1 time
B |----------------------------------------------|
F#|----------------------------------------------|
D |-----------------------------------------5-5--|
A |--------------------------------2-2--4-4------|
E |-4--4-4-4--2--1-1-----------3-3---------------|
B |-2--2-2-2----------2-2-5-5--------------------|
. . . . . . . . . . . . p.m.
Riff 4 - 2 times
guitar 1
B |----------------------------------------------------------|
F#|----------------------------------------------------------|
D |----------------------------------------------4-----------|
A |-----2--4-------------5--2---------2--4-------2---4--3----|
E |-3---0--2--------3----3--0-----3---0--2-----------2--1----|
B |-1---------------1-------------1--------------------------|
guitar 2
B |----------------------------------------------------------|
F#|----------------------------------------------------------|
D |----------------------------------------------------------|
A |-----7--9--------------------------7--9-------------------|
E |-8~--------9-8---8~------------8~--------9-8--7~----------|
B |----------------------8--5~-----------------------7--6~---|
Riff 5 - 1 time

guitar 1
B |-------------------------------------------------------------------|
F#|-------------------------------------------------------------------|
D |-------------------------------------------------------------------|
A |-----------------------------------------------------------8-------|
E |-6------5----5--7----7--4---/---6-----6--5-----5--7-----7--6-------|
B |-4------3----3--5----5--2---/---4-----4--3-----3--5-----5----------|
. . . p.m.
guitar 2
B |-4~~~~--3~~~~3--5~~~~5--2~~~~~-----------------------------11~~~---|
F#|-------------------------------------------------------------------|
D |-------------------------------------------------------------------|
A |--------------------------------6~~~~~6--5~~~~~5--7~~~~~7----------|
E |-------------------------------------------------------------------|
B |-------------------------------------------------------------------|
guitar 1
B |-------------------------------------------------------------------|
F#|-------------------------------------------------------------------|
D |-------------------------------------------------------------------|
A |------------------------------------------------------------8------|
E |-6------5----5--7-----7--4---/---6-----6--5-----5--7-----7--6------|
B |-4------3----3--5-----5--2---/---4-----4--3-----3--5-----5---------|
. . . p.m.
guitar 2
end Riff 5
B |-4~~~~--3~~~~3--5~~~~~5--2~~~~~------------------------------------|
F#|-------------------------------------------------------------------|
D |------------------------------------------------------------8~~~~--|
A |---------------------------------6~~~~~6--5~~~~~5--7~~~~~7---------|
E |-------------------------------------------------------------------|
B |-------------------------------------------------------------------|
Riff 6 - 4 times - blinding running throught the eternal maze ...
B |----------------------------------------|
F#|----------------------------------------|
D |----7--6--------4--------3--2-----------|
A |----5--4--4--2--2--------1--0-----------|
E |-3--------2--1--------3--------6--7--4--|
B |-1--------------------1--------4--5--2--|
Riff 7 - 1 time
guitar 1
B |----------------------|----------------------------|
F#|----------------------|----------------------------|
D |----------------------|----------------------------|
A |----------------------|----------------------------|
E |--3-------------------|--6-------------------------|
B |--1-------------------|--4-------------------------|

guitar 2

2x 2x
B |-14-13----------------|--14-13---------------------|
F#|-------15-14----------|--------15-14---------------|
D |-------------15-14----|--------------15-14---------|
A |-------------------15-|--------------------15------|
E |----------------------|----------------------------|
B |----------------------|----------------------------|
guitar 1
B |----------------------|----------------------------|
F#|----------------------|----------------------------|
D |----------------------|----------------------------|
A |----------------------|--6-------------------6-----|
E |--7-------------------|--4---------------3-4-4-6---|
B |--5-------------------|------------------1-2---4---|
. . . . p.m.
guitar 2

2x 2x
B |-14-13----------------|--14-13---------------------|
F#|-------15-14----------|--------15-14---------------|
D |-------------15-14----|--------------15-14---------|
A |-------------------15-|--------------------15------|
E |----------------------|----------------------------|
B |----------------------|----------------------------|
guitar 1 - feelings disappear your eyes stare blank ...
B |----------------------|----------------------------|
F#|----------------------|----------------------------|
D |----------------------|----------------------------|
A |----------------------|----------------------------|
E |--3-------------------|--6-------------------------|
B |--1-------------------|--4-------------------------|

guitar 2

2x 2x
B |-14-13----------------|--14-13---------------------|
F#|-------15-14----------|--------15-14---------------|
D |-------------15-14----|--------------15-14---------|
A |-------------------15-|--------------------15------|
E |----------------------|----------------------------|
B |----------------------|----------------------------|
guitar 1
B |----------------------|-------------------------------------|
F#|----------------------|-------------------------------------|
D |----------------------|-------------------------------------|
A |----------------------|--6----------------------------6-----|
E |--7-------------------|--4----------------------3--4--4--6--|
B |--5-------------------|-------------------------1--2-----4--|

guitar 2 end riff 7

2x
B |-14-13----------------|--14-13------------------------9~----|
F#|-------15-14----------|--------15-14------------6~-7~----9~-|
D |-------------15-14----|--------------15-14------------------|
A |-------------------15-|--------------------15---------------|
E |----------------------|-------------------------------------|
B |----------------------|-------------------------------------|

back to riff 2 - 4 times with guitarsolo
than riff 3 - 3 times - running in circles ...
than riff 3a - 1 time
than riff 4 - 2 times
than riff 5a - 2 times - blinding running throught the eternal maze ...
guitar 1
B |-------------------------------------------------------------------|
F#|-------------------------------------------------------------------|
D |-------------------------------------------------------------------|
A |------------------------------------------------------------8------|
E |-6------5----5--7-----7--4---/---6-----6--5-----5--7-----7--6------|
B |-4------3----3--5-----5--2---/---4-----4--3-----3--5-----5---------|
. . . p.m.
guitar 2

B |-4~~~~--3~~~~3--5~~~~~5--2~~~~~------------------------------------|
F#|-------------------------------------------------------------------|
D |------------------------------------------------------------8~~~~--|
A |---------------------------------6~~~~~6--5~~~~~5--7~~~~~7---------|
E |-------------------------------------------------------------------|
B |-------------------------------------------------------------------|
ending
B |------------------------------|
F#|------------------------------|
D |------------------------------|
A |------------------------------|
E |-----3-3-----2-2-----3-3------|
B |-2-2-----2-2-----2-2------2---|
. . . . . . . . . . . . . p.m.

end.





Ваше мнение



Капча