tuning 1 wHOLE sTEP dOWN
ARTIST Paradise Lost
SONG One Second
ALBMN One Second

TRANSCRIBED BY Mark Graham
DATE 17.12.97
TIME 08.43 GMT
any corrections Comments or for a Chat your welcome to [email protected]

Riff 1

|------------14----------------------------------------|
|------15-17----17--------15---------------------------|
|---16--------------14-18------------------------------|Piano
|------------------------------------------------------|
|------------------------------------------------------|
|------------------------------------------------------|

Riff 1
|------------------------------------------------------|
|------------------------------------------------------|
|------------------------------------------------------|Chords
|--4--------------------2----------2h4-----------------|
|--2----4h5---4----5p4--0------5-------4---5p4---------|
|-------------2----------------------------------------|

Riff 2
and For One
|------------------------------------------------------|
|------------------------------------------------------|
|---4------------2-------------------------------------|
|---4-----4------2-----7---6---------------------------|
|---2-----4------0-----5---4---------------------------|
|---------2--------------------------------------------|

Riff 3
Turn your tone down as much as poss for best effect

|--/14~-12~---12--------------------------------------------|
|----------------12---------14~~----10--12~~----------------|
|-------------------14--------------------------------------|SOLO****
|-----------------------------------------------------------|
|-----------------------------------------------------------|
|-----------------------------------------------------------|

This song is Very Basic For Gregor
Good Song but not much Guitar

Riff 2 when i saw them live greg & Aaron just play a B chord only
but I think when you play the rest of the chords It sounds better
the solo is nice when you get that tone
flick your selector switch to the neck pickup that usually works





Ваше мнение



Капча