Date: Thu, 9 Jan 1997 06:47:00 +0900
From: Suzuki Tetunori
Subject: tab: Once Solomn by Paradise Lost
Transcribed by Maekawa Tomomi & Suzuki Tetunori
Once Solomn (Paradise Lost)
tune one step down
------------------
------------------
-------------------
-------4--------5--------------------
-2--5--2--2--5--3--2--7--5--7--2--2--
-0--3-----0--3-----0--5--3--5--0--0--
--------------------------------
-------------------------------
---------------------------
--------7--5------
-2--5---5--3----------
-0--3---------------
---------------------------
---------------------------
-------------------------
-------------5--4-------------
-7---5---2---3--2--5--4--5--------
-5---3---0---------3--2--5----
------------------------------
-----------------------------
----------------------------
-------7---5---------
-2--5--5---3-------------------
-0--3---------------------





Ваше мнение



Капча