--NO FORGIVENESS--
By Paradise Lost
From the album Shades of God
Transcribed by Steve Shyshak ([email protected])
Paradise Lost The ShadowLands Webpage: http://www.mnsi.net/~tmleafs/pl/index.htm
Legend:
h- hammer /- slide up
p- pull off -slide down
x^(y)- bend pm- palm mute
x- mute strings
Tune down 1 step DGCFAD
Note: I got tired of tabing this song and have not yet finished the acoustic
intro or most of the solo. If anyone feels like adding to this tab be my guest.
-Acoustic Intro-
(Not finished yet)
Guitar 1 w/Dist
D|-------------------------------------|
A|-------------------------------------|
F|-------------------------------------|
C|---------5-4----5---4-----5--2---x--|
G|--2---2-------2---------2----2---x--|
D|-----------------------------0---x--|
VERSE
(Guitar 1&2) Rhy Fig. #1 End Rhy Fig. 1
pm pm 2x
D[------------------------------------------------------]
A[------------------------------------------------------]
F[------------------------------------------------------]
C[--2-2-2-2-2-----9---8-7---5-5-5-5-5/7---------10/12---]
G[--2-2-2-2-2-----9---8-7---5-5-5-5-3/5----7----10/12---]
D[--0-0-0-0-0---0-7-0-6-5---3-3-3-3-3/5--0-5-0--8 /10---]
I have seen for myself
The rogues of all life born
(Guitar 1&2) Rhy Fig. #2 End Rhy Fig. 2
pm pm pm pm 2x
D[------------------------------------------------]
A[------------------------------------------------]
F[------------------------------------------------]
C[-------------------9-9--------------------------]
G[--2---5---2---2----7-7--------------------------]
D[--0-0-3-0-0-0-0-0--------5-5h6-5--3---3h5-3-0---]
And I'm lying through the night, My solemn end
And a cold touch of death, Takes my hand
CHORUS
(Guitar 1) Rhy Fig. 3
D|----------------------------------------------------|---
A|----------------------------------------------------|---
F|-----7--9--9^10^9--7--------------------------------|---
C|--9-------------------9-----7^8^7--5----------------|---
G|-------------------------7------------7------5h7-7--|---
D|-----------------------------------------5h7--------|---
The only way....
End Rhy Fig. 3
D|------------------------------------------------------------------|
A|------------------------------------------------------------------|
F|-----7--9--9^10^9--7--------------------7-------12h14--14^15^15---|
C|--9-------------------9-------------5h7---12h14-------------------|
G|-------------------------7------5h7-------------------------------|
D|----------------------------5h7-----------------------------------|
The only way
VERSE #2
__w/Rhy Fig. 2 (2x)__
Well I'm fighting for my life
And I'm wasting away the time I've got left
__w/Rhy Fig. 4 (1x)__
The only way.....The only way

(Guitar 1&2) Rhy Fig. 4 End Rhy Fig. 4
2x
D[------------------------------------------------------]
A[------------------------------------------------------]
F[------------------------------------------------------]
C[--9-9-9-9-9---7-7-7-7-7---6-6-6-6-6---5-5-5-5-5/7---]
G[--9-9-9-9-9---7-7-7-7-7---6-6-6-6-6---5-5-5-5-5/7---]
D[--7-7-7-7-7---5-5-5-5-5---4-4-4-4-4---3-3-3-3-3/5---]
Hearing you is a waste of silence
I can't bear....
__w/Rhy Fig 1 (2x)__
I no longer care....I no longer care...
BREAK #1
Rhy. Fig 5-------------| *Guitar 2 Plays notes in ()
2x *--------------------| 2x
D[----------------------][--------------------------]--------------|------|
A[----------------------][--------------------------]--------------|------|
F[----------------------][------(9h10-9)--(7)-(6)---]--------------|------|
C[------7h8-7-----------][--(9)--7h8 -7-------------]--2-----------|------|
G[---7----------5---4---][---7-------------5---4----]--2-----------|------|
D[--------------3---2---][-----------------3---2----]--0-----------|------|
pm pm--| *--| 4x *Play notes in () on 4th repeat only
D[---------------------]
A[---------------------]
F[---------------------]
C[--2-2---2------(9)---]
G[--2-2---2------(7)---]
D[--0-0-0-0-0-0--------]
__w/Rhy Fig. 2 (2x)__
I create the cross that I must wear
And I'm flying to my plight
Successfully
__w/Rhy Fig.3 (1x)__
The only way...........
__w/Rhy Fig. 4 (2x)__
Turning around to an empty space
I cried despair...
__w/Rhy Fig. 1 (2x)__
I no longer care...
SOLO
w/Rhy Fig. 4 (2x), Fig. 1 (2x), Fig. 4 (2x), Fig. 1 (1x), Fig 5 (1x)
2x
D|------------------------------------------------------------------------------------|
A|-----------------------------------------------------------------------12^13-12^13--|
F|----------------------------------------9-11-11^12--11^12--11^12^11p9---------------|
C|-----------------------------9/11---11----------------------------------------------|
G|----------------9--9-9-11-12--------------------------------------------------------|
D|--9--9-9--11-12---------------------------------------------------------------------|
D|-----------12-12p11p10--------------------------------------------------------------|
A|--12--9-----------------12----------------------------------------------------------|
F|--------11-----------------11^12--11^12--11^12--11^12--9-11-9-----------------------|
C|---------------------------------------------------------------14p13p11-------------|
G|------------------------------------------------------------------------------------|
D|------------------------------------------------------------------------------------|
^^^^^^All I have so far^^^^^^
BREAK #2
Clean Elec. w/chorus & Reverb **Elec. w/dist plays notes in ()
2x 2x
D[--------------------|------------------------][-------------------|--------------------]
A[------7-----7-----7-|-------10-----10-----10-][-------0-1-0---1-0-|--------------------]
F[-(4)----------------|-(7)--------------------][-(2)-2-------2-----|------4-----4-----4-]
C[----9---9-----9-----|----12---12-----12------][-------------------|(2)-2---2-----2-----]
G[--------------------|------------------------][--0----------------|--------------------]
D[--7-------7-----7---|--10-------10-----10----][-------------------|-0--------0-----0---]
w/dist pm A.H pm-| 4x
D|-----------------------------[--------------------------]
A|-----------------------------[--------------------------]
F|-----------------------------[--------------------------]
C|---------5-4----5---4-----5--[--------------4-----------]
G|--2---2-------2---------2----[--2--7--4-----------4/5--]
D|-----------------------------[--0------2--2---0-2--2/3--]
4x *---| *Guitar 2 plays note in ()
D[-------------------------]
A[-------------------------]
F[-------------------------]
C[-----4-------------------]
G[--2-----2/4--4/5--542--]
D[-------------------------]
Feelings of remorse
Now locked away, another day, to live again
__w/Rhy Fig. 4 (4x)__
Feeling the pressure high
Holding onto the fire
OUTRO SOLO (Not tabbed yet)
__w/Rhy fig. 1 (2x)__
D|--------------||
A|--------------||
F|--(9)---------||
C|---2----------||
G|---2----------||
D|---0----------||
The End.





Ваше мнение



Капча