tuning 1 Whole Step Dont Fuckin Belive the Tab Book
ARTIST Paradise Lost
SONG Mercy
ALBMN One Second
TRANSCRIBED BY Mark Graham
DATE 27/01/98
TIME 19.20 GMT
any corrections Comments or for a Chat your welcome to [email protected]
Riff 1
You Live for times
|--------------------------------------------------|
|--------------------------------------------------|
|--------------------------------------------------|Both
|--------------------------------------------------|
|---------------4~~------repeat--------------------|
|--4~~---2~~---------------------------------------|
Riff 2
In another Rhyme
|------------------------------------------------------------------|
|------------------------------------------------------------------|
|---------------------------------6-6-6----------------------------|Both
|-----6-6-6-----5-5-5---4-4-4--------------------------------------|Clean Tone
|---------------------------------4-4-4----------------------------|
|-----4-4-4-----3-3-3---2-2-2--------------------------------------|
Riff 3
Its Mercy
|------------------------------------------------------------|
|----12-14~~--12-14~~--12--14~~--12--14~~--12--14--12--------|
|------------------------------------------------------13~~--|Gregor
|------------------------------------------------------------|
|------------------------------------------------------------|
|------------------------------------------------------------|
Riff 3
|---------------------------------------------------------------|
|---------------------------------------------------------------|
|---------------------------------------------------------------|Aaron
|-----9---------------8-----------------------------------------|
|-----7--------6------6-------4---------------------------------|
|-----0--------4--------------2---------------------------------|
Riff 4 & Guitar riff 1
|--------------------------------------------------------------------|
|-----0--2~~--0--2~~---0--2~~----------------------------------------|
|--------------------------------------------------------------------|
|--------------------------------------------------------------------|Gregor
|--------------------------------------------------------------------|
|--------------------------------------------------------------------|
Riff 5
|------------4-------------------------------------------------------|
|----------------0---------------------------------------------------|
|-----1~~------------1-----------------------------------------------|Gregor
|--------------------------------------------------------------------|
|--------------------------------------------------------------------|
|--------------------------------------------------------------------|


Ваше мнение



Капча