lost paradise - instrumental

by Paradise Lost
from the fabulous '90 album 'lost paradise'
transcribed by Christian Reindel([email protected])
any questions or corrections- e-mail me
Copyright (c) (Peaceville) (1990)
Version 1.0 - (02.06.04)
Tune down to B (2.5 steps)
~ bend the note normal
~~~~~ bend the note rapidly

Part 1
guitar 1
B |-------------------------------------------------------------------------|
F#|-------------------------------------------------------------------------|
D |-------------------------------------------------------------------------|
A |---3------------------------1----------3------------------------1--------|
E |-------4----4/3--3--------------------------4----4/3--3------------------|
B |----------------------3------------------------------------3-------------|
guitar 2
B |-------------------------------------------------------------------------|
F#|-------------------------------------------------------------------------|
D |-------------------------------------------------------------------------|
A |-------------------------------------------------------------------------|
E |-------------------------------------------------------------------------|
B |-------------------------------------------------------------------------|
Part 2

guitar 1
B |-------------------------------------------------------------------------|
F#|-------------------------------------------------------------------------|
D |-------------------------------------------------------------------------|
A |---3------------------------1----------3-------------------------1-------|
E |-------4----4/3--3--------------------------4----4/3--3------------------|
B |----------------------3------------------------------------3-------------|
guitar 2
B |-------------------------------------------------------------------------|
F#|-------------------------------------------------------------------------|
D |-------3~~--5h6-5~~~--6-5--3-5--------------3~~--5h6-5~~~--6-5--3-5------|
A |--3~~----------------------------------3~~-------------------------------|
E |-------------------------------------------------------------------------|
B |-------------------------------------------------------------------------|
Part 3
guitar 1
B |-------------------------------------------------------------------------|
F#|-------------------------------------------------------------------------|
D |-------------------------------------------------------------------------|
A |---3------------------------1----------3------------------------1--------|
E |-------4----4/3--3--------------------------4----4/3--3------------------|
B |----------------------3------------------------------------3-------------|
guitar 2
B |-------------------------------------------------------------------------|
F#|-------------------------------------------------------------------------|
D |-------------------------------------------------------------------------|
A |-------------------------------------------------------------------------|
E |-------------------------------------------------------------------------|
B |-------------------------------------------------------------------------|
Part 4
guitar 1
B |-------------------------------------------------------------------------|
F#|-------------------------------------------------------------------------|
D |-------------------------------------------------------------------------|
A |---3------------------------1----------3------------------------1--------|
E |-------4----4/3--3--------------------------4----4/3--3------------------|
B |----------------------3------------------------------------3-------------|
guitar 2
B |----------------3~~~---------------------------------3~~~----------------|
F#|------------5h6----------------------------------5h6---------------------|
D |--5~~--3~~-----------------------------5~~--3~~--------------------------|
A |----------------------5--5h6p5--3~~-----------------------5--5h6p5--3~~--|
E |-------------------------------------------------------------------------|
B |-------------------------------------------------------------------------|
Part 5
guitar 1
B |-------------------------------------------------------------------------|
F#|-------------------------------------------------------------------------|
D |-------------------------------------------------------------------------|
A |---3------------------------1----------3------------------------1--------|
E |-------4----4/3--3--------------------------4----4/3--3------------------|
B |----------------------3------------------------------------3-------------|
guitar 2
B |-------------------------------------------------------------------------|
F#|-------------------------------------------------------------------------|
D |-------------------------------------------------------------------------|
A |-------------------------------------------------------------------------|
E |-------------------------------------------------------------------------|
B |-------------------------------------------------------------------------|
Part 6

guitar 1
B |-------------------------------------------------------------------------|
F#|-------------------------------------------------------------------------|
D |-------------------------------------------------------------------------|
A |---3------------------------1----------3------------------------1--------|
E |-------4----4/3--3--------------------------4----4/3--3------------------|
B |----------------------3------------------------------------3-------------|
guitar 2
B |-------------------------------------------------------------------------|
F#|-------------------------------------------------------------------------|
D |-------3~~--5h6-5~~~--6-5--3-5--------------3~~--5h6-5~~~--6-5--3-5------|
A |--3~~----------------------------------3~~-------------------------------|
E |-------------------------------------------------------------------------|
B |-------------------------------------------------------------------------|
Part 7
guitar 1
B |---------------------------------------------------------------------------|
F#|---------------------------------------------------------------------------|
D |---------------------------------------------------------------------------|
A |---3------------------------1----------3------------------------1--------3-|
E |-------4----4/3--3--------------------------4----4/3--3--------------------|
B |----------------------3------------------------------------3---------------|
guitar 2
B |----------------3~~~---------------------------------3~~~------------------|
F#|------------5h6----------------------------------5h6-----------------------|
D |--5~~--3~~-----------------------------5~~--3~~----------------------------|
A |----------------------5--5h6p5--3~~-----------------------5--5h6p5--3~~--3-|
E |---------------------------------------------------------------------------|
B |---------------------------------------------------------------------------|
end.





Ваше мнение



Капча