Paradise Lost - isolate
from the album symbol of life
typed by Da
tuning : drop D
= n.H.
Main Riff
----------------|----------------|----------------|-----------------
----------------|----------------|----------------|-----------------
----------------|----------------|----------------|-----------------
-2--------------|-5--------------|-4--------------|-10--------------
-2-play-16times-|-5-play-16times-|-4-play-16times-|-10-play-16times-
-2--------------|-5--------------|-4--------------|-10--------------
Riff 2
--------------------------------------------
--------------------------------------------
-----------------------------------
--2---2--------2---2---------------
--2---2-----------------2---2--0h2h3-0-2-3--
--2---2-----------------2---2---------------
p.m. p.m.
------------------------------------------------
------------------------------------------------
---------------------------------------
-2----2--------2---2-----2-----2--5----
-2----2-----------------2---2-----2-----2--5----
-2----2-----------------2---2-----2-----2--5----
p.m. p.m.

Riff 3
--------------------------------------------------
--------------------------------------------------
--------------------------------------------------
---10--------4--------5--------2------------------
---10--------4--------5--------2------------------
---10--------4--------5--------2------------------
order:
1x Main Riff
1x Riff 2
pause
1x Main Riff
1x Riff 2
pause
3x Main Riff
2x Riff 3
2x Riff 2
2x Main Riff





Ваше мнение



Капча