PARADISE LOST - Hallowed Land
By Nick Holmes & Gregor Mackintosh
Tabbed by Nikoteemu V,,n,nen ([email protected])
I'm not quite sure about the solo, but the rest is pretty
much correct (I think).
----------------------------------------------------------------------------
Tablature explained:

12b14 = bend trem = tremolo picking pm = right hand palm mute
..... = hold s = slide xx = left hand mute
r = release h = hammer on (attack marked strings)
t = right hand tap p = pull off
::::: = hold and vibrate 5/6+++ = trill 5th/6th for indicated duration
#x = natural harmonics at x:th fret
&x = pinch harmonics at x:th fret
----------------------------------------------------------------------------
Tune Down 1 step: DGCFAD
GUITAR1
|-----------------------------|------------------------------|
|----9-5---------9-5-9--7--5--|----9-5---------9-5-9--7--5---|
|--6-----6:::--6--------------|--6-----6:::--6---------------|
|-----------------------------|------------------------------|
|-----------------------------|------------------------------|
|-----------------------------|------------------------------|
|GUITAR2 |
|-----------------------------|------------------------------|
|-----------------------------|------------------------------|
|-----------------------------|--------------pm_____---------|
|-----------------------------|--------------4-4-4-4-4-4-4-4-|
|-----------------------------|--------------4-4-4-4-4-4-4-4-|
|-----------------------------|--------------2-2-2-2-2-2-2-2-|
GUITAR1
|--------------------------------4------|-----------------------------------|
|*-------------5-4-----------------5-7--|--------7--5-------------7--5:::--*|
|--4h6-4-6-66------6--4h6-4-6-66--------|-4h6-66-------444-4h6-66-----------|
|---------------------------------------|-----------------------------------|
|*--------------------------------------|----------------------------------*|
|---------------------------------------|-----------------------------------|
|GUITAR2 |
|---------------------------------------|-----------------------------------|
|*--------------------------------------|----------------------------------*|
|---------------------------------------|-4s6-66-----------4s6-66-----------|
|--2---------------4--6-----------------|-4s6-66-4--2------4s6-66-4--2------|
|*-2---------------4--6-----------------|-2s4-44-4--2------2s4-44-4--2-----*|
|--0---------------2--4-----------------|--------2--0-------------2--0------|
You'd love to be so far away
Greet open handed stranger, create a turmoil you're not sane
BOTH
GUITARS
|--------------------------------------------------------------------------|
|*-------------------------------------------------------------------------|
|--------------------------------------------------------------------------|
|--9---------------------------9s11------------------------4s6-66-6-66-9-9-|
|*-7---------------------------7s9-------------------------2s4-44-4-44-7-7-|
|--------------------------------------------------------------------------|

It's not a long way to go, it's gonna end in your
I want the last one to go the embers will revive,
|---------------------------------------------------------------------|
|---------------------------------------------------------------------|
|---------------------------------------------------------------------|
|-4s6-66-6-66-6-9---9---------------------9s11------------------------|
|-2s4-44-4-44-4-7---7---------------------7s9-------------------------|
|---------------------------------------------------------------------|
pain
so stay
|--------------------------------------------|
|-------------------------------------------*|
|--------------------------------------------|
|---4s6-66-6-66-9-9--4s6-66-6-66-6---4---2---|
|---2s4-44-4-44-7-7--2s4-44-4-44-6---4---2--*|
|--------------------------------4---2---0---|
-Piano part
You want to live a life time each and every day
|----------------------------------------------------------------|
|-----hold chord as long as possible, then feedback--------------|
|-6-6-6.........-------------------------------------------------|
|-6-6-6.........-------------------------------------------------|
|-4-4-4.........-------------------------------------------------|
|----------------------------------------------------------------|
You've struggled before I swear to do it again
You've told it before till I, until I'm waekened and
sore
|----------------------------------|--------------------------------------|
|*---9-5------------9-5-9--7--5----|----9-5----------9---5---9---7---5---*|
|--6-----6:::-----6----------------|--6-----6:::-6------------------------|
|----------------------------------|--------------------------------------|
|*---------------------------------|-------------------------------------*|
|----------------------------------|--------------------------------------|
|GUITAR2 |
|----------------------------------|--------------------------------------|
|*---------------------------------|-------------------------------------*|
|--6--------------9----------------|--------------------------------------|
|--6--------------9----------------|--4-----------------------------------|
|*-4--------------7----------------|--4----------------------------------*|
|----------------------------------|--2-----------------------------------|
Seek hallowed land

|GUITAR1-------------------------4------|-----------------------------------|
|*-------------5-4-----------------5-7--|--------7--5-------------7--5:::--*|
|--4h6-4-6-66------6--4h6-4-6-66--------|-4h6-66-------444-4h6-66-----------|
|---------------------------------------|-----------------------------------|
|*--------------------------------------|----------------------------------*|
|---------------------------------------|-----------------------------------|
|GUITAR2 |
|---------------------------------------|-----------------------------------|
|*--------------------------------------|----------------------------------*|
|---------------------------------------|-4s6-66-----------4s6-66-----------|
|--2---------------4--6-----------------|-4s6-66-4--2------4s6-66-4--2------|
|*-2---------------4--6-----------------|-2s4-44-4--2------2s4-44-4--2-----*|
|--0---------------2--4-----------------|--------2--0-------------2--0------|
You'd love to see right through my veins
Crawl over land or mountain in sight the ultimate escape
BOTH
GUITARS
|--------------------------------------------------------------------------|
|*-------------------------------------------------------------------------|
|--------------------------------------------------------------------------|
|--9---------------------------9s11------------------------4s6-66-6-66-9-9-|
|*-7---------------------------7s9-------------------------2s4-44-4-44-7-7-|
|--------------------------------------------------------------------------|
The pale reflection tells all, predominations
A sil-houet-te sub- si- ding, enticed unable
|------------------------------------------------------------------|
|------------------------------------------------------------------|
|------------------------------------------------------------------|
|-4s6-66-6-66-6-9---9-------------------------9s11-----------------|
|-2s4-44-4-44-4-7---7-------------------------7s9------------------|
|------------------------------------------------------------------|
sustain
to relate
|--------------------------------------------|
|-------------------------------------------*|
|--------------------------------------------|
|---4s6-66-6-66-9-9--4s6-66-6-66-6---4---2---|
|---2s4-44-4-44-7-7--2s4-44-4-44-6---4---2--*|
|--------------------------------4---2---0---|
-Piano part
You want to live a life time each and every day
|----------------------------------------------------------------|
|-----hold chord as long as poss.--------------------------------|
|-6-6-6.........-------------------------------------------------|
|-6-6-6.........-------------------------------------------------|
|-4-4-4.........-------------------------------------------------|
|----------------------------------------------------------------|
You've beckoned before You'll never do it again
You've prayed here before Who are the prayers for
|----------------------------------|--------------------------------------|
|*---9-5------------9-5-9--7--5----|----9-5----------9---5---9---7---5---*|
|--6-----6:::-----6----------------|--6-----6:::-6------------------------|
|----------------------------------|--------------------------------------|
|*---------------------------------|-------------------------------------*|
|----------------------------------|--------------------------------------|
|GUITAR2 |
|----------------------------------|--------------------------------------|
|*---------------------------------|-------------------------------------*|
|--6--------------9----------------|--------------------------------------|
|--6--------------9----------------|--4-----------------------------------|
|*-4--------------7----------------|--4----------------------------------*|
|----------------------------------|--2-----------------------------------|
Seek hallowed land
|GUITAR1-------------------------4------|-----------------------------------|
|*-------------5-4-----------------5-7--|--------7--5-------------7--5:::--*|
|--4h6-4-6-66------6--4h6-4-6-66--------|-4h6-66-------444-4h6-66-----------|
|---------------------------------------|-----------------------------------|
|*--------------------------------------|----------------------------------*|
|---------------------------------------|-----------------------------------|
|GUITAR2 |
|---------------------------------------|-----------------------------------|
|*--------------------------------------|----------------------------------*|
|---------------------------------------|-4s6-66-----------4s6-66-----------|
|--2---------------4--6-----------------|-4s6-66-4--2------4s6-66-4--2------|
|*-2---------------4--6-----------------|-2s4-44-4--2------2s4-44-4--2-----*|
|--0---------------2--4-----------------|--------2--0-------------2--0------|
SOLO:
GUITAR1(with wah)
|--------------------------------------------|------------------------------|
|*------------------------------------------*|----------------5/7++++7/9++++|
|--6--6--6--6--6--6--6--6--6--6--6--6--6-----|--6/8+++++++++++--------------|
|--------------------------------------------|------------------------------|
|*------------------------------------------*|------------------------------|
|--------------------------------------------|------------------------------|
|GUITAR2 |
|--------------------------------------------|------------------------------|
|*------------------------------------------*|------------------------------|
|--2(2)--6------(6)---------(9)--4-----6-----|--4-4----6-6----9-9----2-2----|
|--2(2)--6(4)--4(6)--2(6)--6(9)--4(9)--6(11)-|--4-4----6-6----9-9----2-2----|
|*-0(0)--4(4)--4(4)--2(6)--6(7)--2(9)--4(11)*|--2-2----4-4----7-7----0-0----|
|---------(2)--2-----0(4)--4------(7)---(9 )-|------------------------------|
GUITAR2:play notes in parenthesis 2nd time
GUITAR1(with wah)
|------------------|---------------------------------------------------|
|-12/14+++14/17+++-|*-14h17p14p12-14h17p14p12-14h17p14p12-14h17p14p12-*|
|------------------|---------------------------------------------------|
|------------------|---------------------------------------------------|
|------------------|*-------------------------------------------------*|
|------------------|---------------------------------------------------|
|GUITAR2 |
|------------------|---------------------------------------------------|
|------------------|*-------------------------------------------------*|
|------------------|---------------------------------------------------|
|-4-4-----6-6------|--9'-9'--------------------------------------------|
|-4-4-----6-6------|*-9--9--------------------------------------------*|
|-2-2-----4-4------|--7--7---------------------------------------------|
'=2nd time play E5
GUITAR1(with wah)
|----------------------------------|-----------------------------------|
|-14/17+++12/14+++7/9+++++5/7+++++-|*-2h5p2p0-2h5p2p0-2h5p2p0-2h5p2p0-*|
|----------------------------------|-----------------------------------|
|----------------------------------|-----------------------------------|
|----------------------------------|*---------------------------------*|
|----------------------------------|-----------------------------------|
|GUITAR2 |
|----------------------------------|-----------------------------------|
|----------------------------------|*---------------------------------*|
|----------------------------------|--6'-6'----------------------------|
|-4-4-------------6-6--------------|--6--6-----------------------------|
|-4-4-------------6-6--------------|*-4--4----------------------------*|
|-2-2-------------4-4--------------|-----------------------------------|
'=2nd time play F#5
GUITAR1(with wah)
|---------------------------------|
|---------------------------------|
|-6/8+++++4/6+++++6-6-6-6-6-6-6-6-|
|---------------------------------|
|---------------------------------|
|---------------------------------|
|GUITAR2 |
|---------------------------------|
|---------------------------------|
|-----------------6-6-------------|
|-2-2-----6-6-----6-6-----4-4-----|
|-2-2-----6-6-----4-4-----4-4-----|
|-0-0-----4-4-------------2-2-----|
Begone the fools that lead me - I need not to know
BOTH
GUITARS
|---------------------------------------------------------------------------|
|---------------------------------------------------------------------------|
|-2----------6------------------------------------------4----------6--------|
|-2----------6----------4----------2---------6----------4----------6--------|
|-0----------4----------4----------2---------6----------2----------4--------|
|-----------------------2----------0---------4------------------------------|
Accept reclining spirit I need to endure
|---------------------------------------------------------------------------|
|---------------------------------------------------------------------------|
|-2---------------------6---------------------9-----------------------------|
|-2----------4----------6----------6----------9---------9----------11-------|
|-0----------4----------4----------6----------7---------9----------11-------|
|------------2---------------------4--------------------7----------9--------|
You Try to live a life time each and every day
|GUITAR1-----------------------------------------------------------------|
|-------10----9----7:::---9----10----9-----------------------------------|
|-6:::------------------------------------9:::----9----9---8-----6::::---|
|------------------------------------------------------------------------|
|------------------------------------------------------------------------|
|------------------------------------------------------------------------|
|GUITAR2 |
|------------------------------------------------------------------------|
|------------------------------------------------------------------------|
|-2-----------6--------------------------------------------4-----6-------|
|-2-----------6-----------4----------2------------6--------4-----6-------|
|-0-----------4-----------4----------2------------6--------2-----4-------|
|-------------------------2----------0------------4----------------------|
In this short time of promise, you're a me- mo- ry...

|GUITAR1--------------------------------------------------------------------|
|-------10----9----7:::---9----10----9--------------------------------------|
|-6:::----------------------------------9:::---9--9--9--9--9-8--6-4-6::::::-|
|---------------------------------------------------------------------------|
|---------------------------------------------------------------------------|
|---------------------------------------------------------------------------|
|GUITAR2 |
|---------------------------------------------------------------------------|
|---------------------------------------------------------------------------|
|-2-----------------------6-------------------9------------9-8--6-4-6-------|
|-2-----------4-----------6----------6--------9------------9-8--6-4-6-------|
|-0-----------4-----------4----------6--------7------------7-6--4-2-4-------|
|-------------2----------------------4--------------------------------------|
FINE





Ваше мнение



Капча