#----------------------------------PLEASE NOTE---------------------------------#
#This file is the author's own work and represents their interpretation of the #
#song. You may only use this file for private study, scholarship, or research. #
#------------------------------------------------------------------------------#
================================================================================
Title : Fader
Artist : Paradise Lost
Album : Believe nothing
Transcribed by : Dennis G.
================================================================================
Legend
------
h = hammer-on
p = pull-off
b = bend
r = bend release
/ = slide up/down
= natural harmonic
[5] = artifical harmonic
~ = vibrato
tr = trill
This is just the beginning for both guitars. Listen to the rythm again, 'cause I don't know it exactly.
E|-7-7-x-7-7-x-7-7-5-5-x-5-5-x-5-5-5-5-x-5-5-x-5-5-7-7-7-7-7-x-7-7-----|
B|-7-7-x-7-7-x-7-7-5-5-x-5-5-x-5-5-7-7-x-7-7-x-7-7-9-9-9-9-9-x-9-9-----|
G|-8-8-x-8-8-x-8-8-6-6-x-6-6-x-6-6-7-7-x-7-7-x-7-7-9-9-9-9-9-x-9-9-----|
D|-9-9-x-9-9-x-9-9-7-7-x-7-7-x-7-7-7-7-x-7-7-x-7-7-9-9-9-9-9-x-9-9-----|
A|-9-9-x-9-9-x-9-9-7-7-x-7-7-x-7-7-5-5-x-5-5-x-5-5-7-7-7-7-7-x-7-7-----|
E|-7-7-x-7-7-x-7-7-5-5-x-5-5-x-5-5-5-5-x-5-5-x-5-5-7-7-7-7-7-x-7-7-----|
Guita 1/Clear
E|---------------7---5---5---7-------7--7-5--5-5--5-7-|
B|---------------7---5---7---9-------7--7-5--5-7--7-9-|
G|---------------8---6---7---9-------8--8-6--6-7--7-9-|
D|-------------9---7---7---9-----7-8-9--9-7--7-7--7-9-|
A|-------------9---7---5---7---7-----9--9-7--7-5--5-7-|
E|-------------7---5---5---7---------7--7-5--5-5--5-7-|
Guitar 2/Dist.





Ваше мнение



Капча