--EMBRACED--
By Paradise Lost
From the album Shades of God
Transcribed by Steve Shyshak ([email protected])
Paradise Lost The ShadowLands Webpage: http://www.mnsi.net/~tmleafs/pl/index.htm
Legend:
h- hammer /- slide up
p- pull off -slide down
b- bend pm- palm mute
x- mute strings
Tune down 1 step DGCFAD
Fade in
D-------
A-------
F--4----
C--4----
G--2----
D-------
VERSE
2x
D[----------------------]
A[----------------------]
F[---------------4--2---]
C[--2-----5--4---4--2---]
G[--2-----5--4---2--0---]
D[--0-----3--2----------]
Pain...is what we are waiting for
2x
D[--------------------------------]
A[--------------------------------]
F[---------------------6/9--11----]
C[--4-----4/7---7/11---6/9--11----]
G[--4-----4/7---7/11---4/7--9-----]
D[--2-----2/5---7/9 --------------]
Lying deep in comfort, I awake now
2x
D[----------------------]
A[----------------------]
F[---------------4--2---]
C[--2-----5--4---4--2---]
G[--2-----5--4---2--0---]
D[--0-----3--2----------]
I cannot believe this tale
2x
D[--------------------------------]
A[--------------------------------]
F[---------------------6/9--11----]
C[--4-----4/7---7/11---6/9--11----]
G[--4-----4/7---7/11---4/7--9-----]
D[--2-----2/5---7/9 --------------]
I cannot believe the echos ...or your petty lies
2x
D[-------------------------]
A[-------------------------]
F[--2--2-------------------]
C[--2--2-------------------]
G[--0--0-----------12-----]
D[-------------------------]
CHORUS
Slight
pm-| A.H-------------| 2x
D[--------------------------------------]
A[--------------------------------------]
F[--------------------------------------]
C[--------------------------------------]
G[--7-----5-------8--7--2--0--3--5~-----]
D[--5-----3---0-------------------------]
Take away our world, Thrown into the stars
2x
D--------------------[------------------------------]
A--------------------[------------------------------]
F--------------------[--------10--9--4--2--5--7~~~--]
C--------------------[------------------------------]
G--0h3--3/5--5/8--8--[--12--------------------------]
D--------------------[------------------------------]
Guitar 2 plays in ()
Slight
A.H-------------| pm-|
D-----------------------------------------|------------------------------------|
A-----------------------------------------|------------------------------------|
F-----------------------------------------|------------------------------------|
C-------------------(10--9--4--2--5--7)---|--------------(10--9--4--2--5--7)---|
G--7-----5---xx-xx---8---7--2--0--3--5~---|--7-----5------8---7--2--0--3--5~---|
D--5-----3---xx-xx------------------------|--5-----3--0------------------------|
Take away our world, Worship all that's ours
Fade in
D-------
A-------
F--4----
C--4----
G--2----
D-------
-REPEAT VERSE RIFFS-
Cry at echos in your heart
Lying in the ocean until the end of time
Solitude embracing us
Suicide our hearts embrace
Life and death become the race
BREAK
*-Guitar 2 plays Pm. E5s
Pm A.H Pm A.H *----| 4x
D[------------------------------------]
A[------------------------------------]
F[------------------------------------]
C[------------------------------------]
G[------7---------2--x-x-x------------]
D[--0-------0--3--0--x-x-x--0--3--0---]
Pm-| 4x
D[------------------------------]
A[------------------------------]
F[-----------------------9-----]
C[-----------------------9-----]
G[--2-------2--4-4-5-5---7-----]
D[--0--0-0--0--2-2-3-3----------]
*-Guitar 2 plays Pm. E5s
Pm A.H Pm A.H *----| 4x
D[------------------------------------]
A[------------------------------------]
F[------------------------------------]
C[------------------------------------]
G[------7---------2--x-x-x------------]
D[--0-------0--3--0--x-x-x--0--3--0---]
Array of fear
Controls me now
And I cry
In dark despair
Pm-| 6x
D[------------------------------]
A[------------------------------]
F[-----------------------9-----]
C[-----------------------9-----]
G[--2-------2--4-4-5-5---7-----]
D[--0--0-0--0--2-2-3-3----------]
Slight Slight
pm-| A.H-------------|2x pm--| pm-| A.H---------------|
D[-----------------------------------]--------------------------------------------|
A[-----------------------------------]--------------------------------------------|
F[-----------------------------------]--------------------------------------------|
C[-----------------------------------]--------------------------------------------|
G[--7-----5-------8--7--2--0--3--5~--]------7-----5--xx-xx---8--7--2--0--3--5~----|
D[--5-----3---0----------------------]-0-0--5--0--3--xx-xx------------------------|
Take away our world, Take me away,
Slight
pm-| A.H-------------| Pm A.H Pm A.H *----|
D[----------------------------------|------------------------------------|
A[----------------------------------|------------------------------------|
F[----------------------------------|------------------------------------|
C[----------------------------------|------------------------------------|
G[--7-----5-------8--7--2--0--3--5~-|------7---------2--x-x-x------------|
D[--5-----3---0---------------------|--0-------0--3--0--x-x-x--0--3--0---|
Take away our world
Pm A.H Pm A.H
D[--------------------------------||
A[--------------------------------||
F[--------------------------------||
C[--------------------------------||
G[------7------------2------------||
D[--0-------0--3--0--0------------||


Ваше мнение



Капча