Date: Tue, 27 Aug 1996 09:08:19 +0200
From: Erik Albinsson
Subject: TAB: Embers Fire by Paradise Lost
Transcribed by Erik Albinsson
EMBERS FIRE by PARADISE LOST
from their album ICON
music by Gregor Mackintosh
words by Nick Holmes

This song is tuned down a full step (6=D, 5=G, 4=C, 3=F, 2=A, 1=D)
Listen to the record to get the rhythm...
Keyboard intro
|----------------------|
|----------------------|
|----------------------|
|----------------------|
|----------------------|
|----------------------|
riff1
|---------------------------------------------------------------|
|---------------------------------------------------------------|
|---------------------------------------------------------------|
|--2-------------------------2-------------------------2--------|
|--0--------5------3------2--0--------5------3------2--0--------|
|-----------3------1------0-----------3------1------0-----------|
riff2 (Use your wah-wah pedal...)
|--------------------------------------------------------------------|
|--------------------------------------------------------------------|
|--------------------------------------------------------------------|
|--------------------------------------------------------------------|
|--7---5--5--3--3--2--2--0--0-----------------7---5--5--3--3--2--2-0-|
|--------------------------------------------------------------------|
riff3
|---------------------------------------------|
|---------------------------------------------|
|---------------------------------------------|
|-2--------5-----5---5--7----3-----3---3--5---|
|-0-----------7-----------------5-------------|
|---------------------------------------------|
riff4
|---------------------------------------------|
|---------------------------------------------|
|---------------------------------------------|
|-2---------------2---------------------------|
|-0----5--2----5--0----2---3--3-3-3-3-3-3-3---|
|------3--0----3-------0---1--1-1-1-1-1-1-1---|
pm . . . . . . .

bridge
|-----------------------|
|-----------------------|
|-----5--7------5--7----|
|--7---------7----------|
|-----------------------|
|-----------------------|

SOLO
First part (x4)
|---------------------|
|---------------------|
|-5---------7---------|
|----7-7-------7-7----|
|---------------------|
|---------------------|
***If you want to play the really fast part in the middle of the solo,
you'll have to figure it out yourself***
Last part (I know that this part isn't the same that Gregor plays on the
record, but this one sounds all right too...)
|----------------------------------------|
|-5------------------------------5-------|
|-----7--5--------4-----4--5--7-----7--5-|
|-----------7--------7-------------------|
|----------------------------------------|
|----------------------------------------|
|---------------------------------------------------|
|-5------------------------------------6--5---------|
|----7--5------------------------5--7--------5------|
|----------7---5-----------5--7-----------------7---|
|-----------------7--5--7---------------------------|
|---------------------------------------------------|
The parts are in this order:
1 x Riff1
1 x Riff2
4 x Riff3
1 x Riff2
4 x Riff3
2 x Riff4
1 x Bridge
1 x Riff2
4 x Riff3
2 x Riff4
1 x Bridge
SOLO
2 x Riff4
1 x Bridge
2 x Riff2

Date: Sun, 8 Dec 1996 06:53:41 +0900
From: Suzuki Tetunori
Subject: TAB: EMBERS FIRE (ICON) by PARADISE LOST
Transcribed by Maekawa Tomomi & Suzuki Tetunori

EMBERS FIRE by PARADISE LOST
from their album ICON
music by Gregor Mackintosh
words by Nick Holmes
Tuning: (D,G,C,F,A,D)
Keyboard intro
|---------------------------------|
|---------------------------------|
|---------------------------------|
|---------------------------------|
|-0---10--7---3--5----------------|
|--------------------0--1--3------|
riff1
|---------------------------------------------------------------|
|---------------------------------------------------------------|
|---------------------------------------------------------------|
|--2-------------------------2-------------------------2--------|
|--0--------5------3------2--0--------5------3------2--0--------|
|-----------3------1------0-----------3------1------0-----------|
riff2 (Use your wah-wah pedal...)
|--------------------------------------------------------------------|
|--------------------------------------------------------------------|
|--------------------------------------------------------------------|
|--9---7--7--5--5--4--4--2--2-----------------9---7--7--5--5--4--4-2-|
|--7---5--5--3--3--2--2--0--0-----------------7---5--5--3--3--2--2-0-|
|--------------------------------------------------------------------|
riff3
|---------------------------------------------|
|---------------------------------------------|
|---------------------------------------------|
|-2--------5-----5---5--7----3-----3---3--5---|
|-0-----------7-----------------5-------------|
|---------------------------------------------|
riff4
|-----------------------------------------------------7-8-10-|
|------------------------------------------------------------|
|----10--8---10-8--------10--8---10-8------5-7--5--7---------|
|--8-------8------8----8-------8------8--7-----7-------------|
|------------------------------------------------------------|
|------------------------------------------------------------|
riff5
|---------------------------------------------|
|---------------------------------------------|
|---------------------------------------------|
|-2---------------2---------------------------|
|-0----5--2----5--0----2---3--3-3-3-3-3-3-3---|
|------3--0----3-------0---1--1-1-1-1-1-1-1---|
pm . . . . . . .

SOLO
|--10p8p7-and--12p10p8p7 and--8p5p3-and-22p20p18p15----------|
|--12p10p8p7 and--10p8p7-------------------------------------|
|-----------------------------------------------------------------|
|--------------------------------------------------------6-5------|
|--9-7----------------------7-7-9-7--------------------------5-4--|
|------10-7---9-7-9-7-9-10----------10-7-5-7-3-5-7-5-3-2----------|
|-----------------------------------------------------------------|
|-----------------------------------------------------------------|





Ваше мнение



Капча