tuning 1 Whole Step Down
ARTIST Paradise Lost
SONG Embers Fire
ALBUM Icon
TRANSCRIBED BY Mark Graham
DATE 03/11/97
TIME 8.49 GMT
any corrections Comments or for a Chat your welcome to [email protected]
Intro Arranged for Guitar
|----------------------------------------------------------------|
|----------------------------------------------------------------|
|-------------------------------------x2-------------------------|
|-------5--------------------------------------------------------|
|--0--------7---3---5--------------------------------------------|
|------------------------0----1---3------------------------------|
Riff 1
|-----------------------------------------------------------|
|-----------------------------------------------------------|
|-----------------------------------------------------------|
|-----------------------------------------------------------|Aaron
|---7-----5-----3--------7----------------------------------|
|---5-----3-----1---0----5----------------------------------|
Riff 1 With Wah Wah!!
Anger Looks on
|------------------------------------------------------|
|------------------------------------------------------|
|--------9-7----7-5---5-4---4-----------------------|Gregor
|--0-----------------------------------0---------------|
|--7-----7-5----5-3---3-2---2--0----7---------------|
|------------------------------------------------------|
Riff 2
A Fallen Time Thats
Hold Back Desire
Laid Back The Laws
|-------------------------------------------------------------|
|-------------------------------------------------------------|
|--2--------------------------------2-------------------------|Both
|--2----5p3--5--5/7--3p0--3--3/5----2-------------------------|
|--0--------------------------------0-------------------------|
|-------------------------------------------------------------|
Riff 3
Dont Run Away
Harmony Breaks
|-----------------------------------------------------------------|
|-----------------------------------------------------------------|
|--2--------------------------------------------------------------|Aaron
|--2----12---9----5---7---------Damped-*-*-*-*--------------------|
|--0----10---7----3---5---2-----3-3-3-3-3-3-3-3-------------------|
|-------------------------0-----1-1-1-1-1-1-1-1-------------------|
Riff 3
Dont Run Away
|------------------------------------------------------------------------|
|-----5------5---------5------5----------5-----5-------------------------|
|-------5------5---------5------5----------7-----7-------5-7---5-7-7-----|Gregor
|---------7------7---------7------7----------7-----7---7-----7-----------|
|--0----------------------------------5----------------------------------|
|-------------------0----------------------------------------------------|
Solo (See Notes at end of tab) With Wah Wah!!!!!
|--------------------|-----------------|-------------------------------|
|--T-------T---------|------------T----|-----------T----------T--------|
|-17p-14~~-19-p-14~~-|---14--h17--19p--|----14-17-19-p-14-17-17--------|Gregor
|--------------------|-----------------|-------------------------------|
|--------------------|-----------------|-------------------------------|
|--------------------|-----------------|-------------------------------|
*See 1 *See 2
|-(T)---------------------------T--T-------------|---------------------|
|--17p15-(T)--------(T)---------17-17-p15-T------|--(T)-(T)------------|
|---------17-p14-17-19--p17---------------17-p14-|--17--17-p14---------|Gregor
|------------------------------------------------|-------------17p14---|
|------------------------------------------------|---------------------|
|------------------------------------------------|---------------------|
(T) (T)
|---------(T)--|---15h17-22-p15h17-20-|--------(T)-------(T)--|
|--12-h15-17---|----------------------|--12h15-17p-12-15-20---|
|--------------|----------------------|-----------------------|Gregor
|--------------|----------------------|-----------------------|
|--------------|----------------------|-----------------------|
|--------------|----------------------|-----------------------|
|------------------------------------------------------------|
|--------(T)--------------(T)--------------------------------|
|--14h17-19-- x4-----14h17-21- x3--------------------------|Gregor
|------------------------------------------------------------|
|------------------------------------------------------------|
|------------------------------------------------------------|
|-----------------------------------------------------------------------------|
|------------------------------10---------------------------------------------|
|--9-7--------------------7-9-----9-7---------------------------10-9----------|
|-------10--7--9p7-9-7-10-------------10-7---5h7----------------------10-9----|
|------------------------------------------------8p7-8-7----------------------|
|---------------------------------------------------------8-7-----------------|
(Sorry to bore you all with this but you really should read as it helped me
Notes for solo
This is a very well executed peice of tapping there are about 5 or 6 different techs here
Its very hard to begin learning this but a journey of 1000 miles begins with 1 step
1.MIDDLE finger must be on a 15 on b string with POINTING finger on a 14 on g string
using right hand to tap
in this and peicew 2 you are in fact tapping back on yourself
and i will gaurantee you will tap your own finger for ages
2.pointing finger bar 14 on both G string & D String use same tech as 1

Please also note the following i use to make this correct
1.I was lucky to meet gregor and ask him in person for hints on the peices i was stuck on!!!!!v c
2.A german Channel called WDR has live bands every weekend PL have been on twice
the camera was on gregor the whole time (SO I KNOW THIS IS PRETTY MUCH CORRECT)
3.Practice Like FU** and you will get it
4.It took me about 1 year to master this solo so dont give up

If you need any help at all or a Comment please email me on
[email protected]
Go Cowboys
see ya later
ps to tab this took Fuc*** 4 hours so enjoy





Ваше мнение



Капча